Thanksgiving

(/) Slide Up  (\) Slide Down  (h) Hammer On  (p) Pull Off  (b) Bend (r) Release (v) Vibrato

E|-----------------------|-----------0--|-----------5-----8-----|-----------2--|--0--------0---|-----
B|-----------0-----0-----|--------0--1--|-----------7-----7-----|-----------0--|--------3--12--|-----
G|-----------0-----0-----|--------------|-----2--9-----9-----9--|--------2-----|-----0-----0---|-----
D|--------4-----4-----4--|-----2--------|--0--------------------|-----0--------|---------------|-----
A|-----2-----------------|--0-----------|-----------------------|--------------|--3------------|-----
E|--0--------------------|--------------|-----------------------|--3-----------|---------------|-----



E|--7-----------|--0-----------------0--|--------------|--------0-----------|-----------------|--
B|-----------4--|-----0-----------------|-----0--------|--------------3--1--|--0-----------3--|--
G|--------6-----|-----------0-----0-----|--------------|-----2-----5--------|-----0-----------|--
D|-----4--------|--------4-----4--------|--------------|--0--------4--------|--------0--2-----|--
A|--------------|-----------------------|--0-----2--3--|--------------0-----|-----------------|--
E|--7-----------|--0--------------------|--------------|--------------------|--3--------------|--
http://www.guitartabcreator.com
Guitar Tab Creator is intended to store guitar tab created through the tool. It currently does not support in-line text editing. Any text you place in here will be lost. If you need to comment on your tab, please use the "Tab Notes" section located below.