Cocaine

(/) Slide Up  (\) Slide Down  (h) Hammer On  (p) Pull Off  (b) Bend (r) Release (v) Vibrato

Stave 1:

E|----------------------
B|----------------------
G|--9--9--7--9----7-----
D|--9--9--7--9----7-----
A|--7--7--5--7----5-----
E|----------------------

Stave 2:

E|-------------------
B|-------------------
G|--9----7----5----3r
D|--9----7----5----3-
A|--7----5----3----2-
E|-------------------

http://www.guitartabcreator.com
Guitar Tab Creator is intended to store guitar tab created through the tool. It currently does not support in-line text editing. Any text you place in here will be lost. If you need to comment on your tab, please use the "Tab Notes" section located below.