Can't Stop

(/) Slide Up  (\) Slide Down  (h) Hammer On  (p) Pull Off  (b) Bend (r) Release (v) Vibrato

Stave 1:

E|---------------------------------------------
B|---------------------------------------------
G|-----7--9-------------7--9-------------------
D|---------------------------------------------
A|--7--------7--7--7----------7--7--7----------
E|---------------------------------------------

Stave 2:

E|-------------------------------------
B|-------------------------------------
G|-----7--9-------------7--9-----------
D|-------------------------------------
A|--5--------5--5--5----------5--5--5--
E|-------------------------------------

Stave 3:

E|-------------------------------------------
B|-------------------------------------------
G|-----7--9-------------7--9-----------------
D|-------------------------------------------
A|-------------------------------------------
E|--7--------7--7--7----------7--7--7--------

Stave 4:

E|-------------------------------------
B|-------------------------------------
G|-----7--9-------------7--9-----------
D|-------------------------------------
A|-------------------------------------
E|--8--------8--8--8----------8--8--8--

http://www.guitartabcreator.com
Guitar Tab Creator is intended to store guitar tab created through the tool. It currently does not support in-line text editing. Any text you place in here will be lost. If you need to comment on your tab, please use the "Tab Notes" section located below.