선잠 INTRO

(/) Slide Up  (\) Slide Down  (h) Hammer On  (p) Pull Off  (b) Bend (r) Release (v) Vibrato

E|-----------3-------2---3---
B|---3---------------2-------
G|-------0-------0-----------
D|---------------------------
A|---2---------------1-------
E|---3-----------------------



E|-----------0-------2-------3-------
B|---1-----------1-------1-------1---
G|-------0---------------------------
D|-----------------------------------
A|---0-------------------------------
E|-----------------------------------



E|--0-------8--
B|--1--1/5--7--
G|--0-------8--
D|--0-------0--
A|-------------
E|-------------
http://www.guitartabcreator.com
Guitar Tab Creator is intended to store guitar tab created through the tool. It currently does not support in-line text editing. Any text you place in here will be lost. If you need to comment on your tab, please use the "Tab Notes" section located below.