선잠 1절

(/) Slide Up  (\) Slide Down  (h) Hammer On  (p) Pull Off  (b) Bend (r) Release (v) Vibrato


E|--------------------------
B|--3--------0--1--------1--
G|--------0-----------0-----
D|-----0-----------2--------
A|--------------0-----------
E|--3-----------------------



E|--0--------------------
B|--------3--1--------1--
G|-----0-----------0-----
D|--------------2--------
A|--2--------0-----------
E|-----------------------



E|--------------------------
B|--3--------0--1--------1--
G|--------0-----------0-----
D|-----0-----------2--------
A|--------------0-----------
E|--3-----------------------



E|--1--------------
B|--3-----------0--
G|--2--------0-----
D|--------0--------
A|-----------------
E|-----3-----------



E|-------------------2-----------
B|---1-----------1---3-------1---
G|-----------0-----------2-------
D|---2---2-----------0-------2---
A|---3-----------------------3---
E|-------------------------------



E|-----------------------------------
B|---3-----------3---0-----------0---
G|---0-------0-------1-------1-------
D|-------0---------------0-----------
A|---2---------------2---------------
E|-----------------------------------



E|-----------------------------------
B|---1-----------1---------------1---
G|---0-------0---------------0-------
D|-------2---------------2-----------
A|---0-------------------------------
E|-------------------3---------------



E|-----------------8---
B|-----------1/5---7---
G|-------0---------8---
D|---0-------------0---
A|---------------------
E|---------------------
http://www.guitartabcreator.com
Guitar Tab Creator is intended to store guitar tab created through the tool. It currently does not support in-line text editing. Any text you place in here will be lost. If you need to comment on your tab, please use the "Tab Notes" section located below.