cool chord song

(/) Slide Up  (\) Slide Down  (h) Hammer On  (p) Pull Off  (b) Bend (r) Release (v) Vibrato

E|--------7--7--
B|--8--7--7--7--
G|--7--7--7--8--
D|--------9--9--
A|--7--7--9--9--
E|--------------



E|--3-----------7---------
B|--3-----------8---------
G|--4-----------8---------
D|--5-------5h7/9---------
A|--5--5/7---------9\5/7--
E|------------------------



E|--7---7---7---9---12--
B|--8---7---8---10--10--
G|--9---7---9---9---9---
D|--10--10--10----------
A|----------------------
E|----------------------



E|--11--8---11--15--
B|--9---11--13--15--
G|--10--8---12--13--
D|------10--10--13--
A|--8-------10------
E|------8-----------
http://www.guitartabcreator.com
Guitar Tab Creator is intended to store guitar tab created through the tool. It currently does not support in-line text editing. Any text you place in here will be lost. If you need to comment on your tab, please use the "Tab Notes" section located below.