Angel Of Admire

(/) Slide Up  (\) Slide Down  (h) Hammer On  (p) Pull Off  (b) Bend (r) Release (v) Vibrato
Intro:
Eb|-----------------------------------------------------------
Bb|-----------------------------------------------------------
Gb|----------------------------------------------------------- X4
Db|-----------------------------------------------------------
Ab|-----------------------------------------------------------
Eb|-7-7-7-7-7-7-7\6-6-6-6-6-6-6\4-4-4-4-4-4-4\2-2-2-2-2/4-4-4-


Verse: Main Rythym
Eb|---------------------------------------------------------------------------------------------
Bb|---------------------------------------------------------------------------------------------
Gb|---------------------------------------------------------------------------------------------
Db|-----4-------------------------------4-------------------------------4-----------------------
Ab|b---------6-4-----4---4h6-----4h6---------6-4-----4---4h6-----4h6---------6-4-----4---4h6-----
Eb|-7-7---7-----7-7---7-----7-7-----6-6---6-----6-6---6-----6-6-----4-4---4-----4-4---4-----4-4-


Eb|-------------------------------------
Bb|-------------------------------------
Gb|------------------------------------- X4
Db|---------4---------------------------
Ab|-4h6---------6-4-----4---4h6-----4h6-
Eb|-----2-2---2-----2-2---2-----2-2-----


Chorus: Main Chords
Eb|-------------------------------------------------------------------------
Bb|-------------------------------------------------------------------------
Gb|-8-8-8-8-8-8-8-8-11-11-11-11-11-11-11-11-4-4-4-4-4-4-4-4-8-8-8-8-6-6-6-6- X2
Db|-9-9-9-9-9-9-9-9-11-11-11-11-11-11-11-11-6-6-6-6-6-6-6-6-8-8-8-8-6-6-6-6-
Ab|-7-7-7-7-7-7-7-7-9--9--9--9--9--9--9--9--6-6-6-6-6-6-6-6-6-6-6-6-4-4-4-4-
Eb|-------------------------------------------------------------------------


Verse 2 : Main Rythym
Eb|---------------------------------------------------------------------------------------------
Bb|---------------------------------------------------------------------------------------------
Gb|---------------------------------------------------------------------------------------------
Db|-----4-------------------------------4-------------------------------4-----------------------
Ab|b---------6-4-----4---4h6-----4h6---------6-4-----4---4h6-----4h6---------6-4-----4---4h6-----
Eb|-7-7---7-----7-7---7-----7-7-----6-6---6-----6-6---6-----6-6-----4-4---4-----4-4---4-----4-4-


Eb|-------------------------------------
Bb|-------------------------------------
Gb|------------------------------------- X4
Db|---------4---------------------------
Ab|-4h6---------6-4-----4---4h6-----4h6-
Eb|-----2-2---2-----2-2---2-----2-2-----


Chorus 2 : Main Chords
Eb|-------------------------------------------------------------------------
Bb|-------------------------------------------------------------------------
Gb|-8-8-8-8-8-8-8-8-11-11-11-11-11-11-11-11-4-4-4-4-4-4-4-4-8-8-8-8-6-6-6-6- X2
Db|-9-9-9-9-9-9-9-9-11-11-11-11-11-11-11-11-6-6-6-6-6-6-6-6-8-8-8-8-6-6-6-6-
Ab|-7-7-7-7-7-7-7-7-9--9--9--9--9--9--9--9--6-6-6-6-6-6-6-6-6-6-6-6-4-4-4-4-
Eb|-------------------------------------------------------------------------


Bridge:
Eb|-----------------------------------------------------------------------
Bb|-----------------------------------------------------------------------
Gb|-----4---4-------------3---3-------------4---4-------------3---3------- X4
Db|---4---4---4---4-----4---4---4---4-------------------------------------
Ab|-2-----------2-----2-----------2-------2---2---2---2-----2---2---2---2-
Eb|-------------------------------------4-----------4-----2-----------2---



Eb|-------------------------------------------------------------------
Bb|-------------------------------------------------------------------
Gb|-4-4-4-4-4-4-4-4-3-3-3-3-3-3-3-3-4-4-4-4-4-4-4-4-3-3-3-3-3-3-3-3--- X2
Db|-4-4-4-4-4-4-4-4-4-4-4-4-4-4-4-4-----------------------------------
Ab|-2-2-2-2-2-2-2-2-2-2-2-2-2-2-2-2-2-2-2-2-2-2-2-2-2-2-2-2-2-2-2-2---
Eb|---------------------------------4-4-4-4-4-4-4-4-2-2-2-2-2-2-2-2---


Bridge solo?
Eb|--------------------------------------------------------------------
Bb|--------------------------------------------------------------------
Gb|-------------------------------------------------------------------- X2
Db|-------4---------------------------------4-----------9---9-8---8----
Ab|----------6-4-----4h6v-----4h6p4------------6-4--4/7---7-----7---9v-
Eb|-4\7v----------7--------7---------7---7-----------------------------



http://www.guitartabcreator.com
Guitar Tab Creator is intended to store guitar tab created through the tool. It currently does not support in-line text editing. Any text you place in here will be lost. If you need to comment on your tab, please use the "Tab Notes" section located below.