Dragon Warrior II - A Lonely Youth

(/) Slide Up  (\) Slide Down  (h) Hammer On  (p) Pull Off  (b) Bend (r) Release (v) Vibrato

E|-----5--3--1--0--------8------------------------------------4--5--10--12--10--17--12--12--10-----
B|--3--------------1--3-----8--10------------------------------------------------------------------
G|---------------------------------10--12--10--9---------------------------------------------------
D|------------------------------------------------10--12-------------------------------------------
A|--------------------------------------------------------17---------------------------------------
E|-------------------------------------------------------------------------------------------------



E|--17--12--8--5---------------------0--------------3--6--9--
B|----------------8--6--8--10--3--1-----3--1--5--5-----------
G|-----------------------------------------------------------
D|-----------------------------------------------------------
A|-----------------------------------------------------------
E|-----------------------------------------------------------
http://www.guitartabcreator.com
Guitar Tab Creator is intended to store guitar tab created through the tool. It currently does not support in-line text editing. Any text you place in here will be lost. If you need to comment on your tab, please use the "Tab Notes" section located below.