my first tab

(/) Slide Up  (\) Slide Down  (h) Hammer On  (p) Pull Off  (b) Bend (r) Release (v) Vibrato


E|--------------------------------------------------5--7--0--10--12--
B|-----------------------------------------5--7--0-------------------
G|--------------------------------5--7--0----------------------------
D|-----------------------5--7--0-------------------------------------
A|--------------5--7--0----------------------------------------------
E|--0--5--7--0-------------------------------------------------------



E|--12--10--5--7--5--0-----------------------------------------------
B|----------------------7--5--0--------------------------------------
G|-------------------------------7--5--0-----------------------------
D|----------------------------------------7--5--0--------------------
A|-------------------------------------------------7--5--0-----------
E|----------------------------------------------------------7--5--0--
http://www.guitartabcreator.com
Guitar Tab Creator is intended to store guitar tab created through the tool. It currently does not support in-line text editing. Any text you place in here will be lost. If you need to comment on your tab, please use the "Tab Notes" section located below.