WALKING the DEAD's

(/) Slide Up  (\) Slide Down  (h) Hammer On  (p) Pull Off  (b) Bend (r) Release (v) Vibrato
E|----------------------------------------------------------------------------------------------
B|----------------------------------------------------------------------------------------------
G|------------------------------------------9---------------------------------------7-----------
D|--5--------7--------9--------9------7--9-----9--10--9--------7--------7-----5--7-----7--8--7--
A|--5--------7--------9--7--9-----10------------------9--------7--5--7-----8-----------------7--
E|--3--0--0--5--0--0--7-------------------------------7--0--0--5-----------------------------5--
pm: . . . . . .


E|----------------------------------------------------------------------------------------------
B|----------------------------------------------------------------------------------------------
G|-----------------------------5-----------17----------15---------------------------------------
D|--------5--------5-----3--5-----5--6/17------15--17------17--15------15--17------17--15v--15--
A|--------5--3--5-----6--------------------------------------------17----------15---------------
E|--0--0--3-------------------------------------------------------------------------------------
pm: . .


E|-------------------------------------------------------------------------------------------------
B|--------------------------------------------------------------13--12\10/12--15--12--12h13p12-----
G|-------------------------------15----------17b17----------14-------------------------------------
D|--17------17--15-------15--17------17--15---------15--14-----------------------------------------
A|------15----------17v----------------------------------------------------------------------------
E|-------------------------------------------------------------------------------------------------

«4x»

E|-------------------------------------|---------------------------------------------------------
B|-------------------------------------|----------13--12\10/12--15--12--12h13p12-----------------
G|--14--12\11--------------------------|------14----------------------------------14--12\11------
D|-------------12----------------------|--14-------------------------------------------------12--
A|-----------------14--15--15--12--15--|---------------------------------------------------------
E|-------------------------13--10--13--|---------------------------------------------------------



E|----------------------|----------------------------------------------------------------------
B|----------------------|----------------------------------------------------------------------
G|----------------------|----------------------------------------------------------------------
D|----------------------|------------------------------------------------------------------14--
A|--14--15--15--12--15--|--15--15--15--15--15--15--15--15--17--17--17--17--17--17--17--17------
E|----------13--10--13--|----------------------------------------------------------------------



E|----------------------------------------------------------------------------------------------
B|----------------------------------------------------------------------------------------------
G|----------------------------------------------------------------------------------------------
D|--14--14--14--14--14--14--14--15--15--15--15--15--15--15--15--17--17--17--17--17--17--17--17--
A|----------------------------------------------------------------------------------------------
E|----------------------------------------------------------------------------------------------



E|---------------------------------------------------------------------------------------------
B|---------------------------------------------------------------------------------------------
G|--15--15--15--15--15--15--15--15--14--14--14--14--14--14--14--14--17--17--17--17--17--17-----
D|---------------------------------------------------------------------------------------------
A|---------------------------------------------------------------------------------------------
E|---------------------------------------------------------------------------------------------



E|---------------------------------------------------------------------------------------------
B|---------------------------------------------------------------------13--12\10/12--12h13p12--
G|--17--17--19--19--19--19--19--19--19--19b20--17--15--------------14--------------------------
D|-----------------------------------------------------17--15--14------------------------------
A|---------------------------------------------------------------------------------------------
E|---------------------------------------------------------------------------------------------



E|----------------------------|----------------------------------------------------------------
B|----------------------------|----------------------------------------------------------------
G|--14--12\11-----------------|------------------------------------------9---------------------
D|-------------12------12/14--|-----------------------------9------7--9-----9--10--------------
A|-----------------14---------|--5--------7--------9--7--9-----10------------------9--------7--
E|----------------------------|--3--0--0--5--0--0--7-------------------------------7--0--0--5--
pm: . . . . . .


E|-----------------------------------------------------------------------------------------
B|-----------------------------------------------------------------------------------------
G|--------------------7--------------------------------------5-----------------------5--5--
D|--------7-----5--7-----7--8--------------------5-----3--5-----5--6--3--5--5--6--6--------
A|--5--7-----8-----------------7--------5--3--5-----6--------------------------------------
E|-----------------------------5--0--0--3--------------------------------------------------
pm: . .


E|-----------------------------------------------------------------------------------------
B|-----------------------------------------------------------------------------------------
G|--------------7--7--5--5----------------------9--9--------------------------12--12--11v--
D|--7--7--8--8--------------8--8--9--9--10--10--------11--11--12--12--13--13---------------
A|-----------------------------------------------------------------------------------------
E|-----------------------------------------------------------------------------------------



E|--13--12--10--12--13------13--12--10--12--13------13--12--10--12--13------13--12--10--12-------
B|----------------------10----------------------11----------------------12------------------13v--
G|-----------------------------------------------------------------------------------------------
D|-----------------------------------------------------------------------------------------------
A|-----------------------------------------------------------------------------------------------
E|-----------------------------------------------------------------------------------------------

«2x» «2x» «2x»

E|------------------------------|--------------------------12--|----------------------15--12--|--
B|--12--15--17--17--17--15--12--|--12--15--17--17--17--15------|--12--15--17--17--17----------|--
G|------------------------------|------------------------------|------------------------------|--
D|------------------------------|------------------------------|------------------------------|--
A|------------------------------|------------------------------|------------------------------|--
E|------------------------------|------------------------------|------------------------------|--

«2x» «2x» «2x»

E|--------------17--17--15--12--|----------17--17--17--15--12--|------15--17--17--17--15--12--|--
B|--12--15--17------------------|--12--15----------------------|--12--------------------------|--
G|------------------------------|------------------------------|------------------------------|--
D|------------------------------|------------------------------|------------------------------|--
A|------------------------------|------------------------------|------------------------------|--
E|------------------------------|------------------------------|------------------------------|--

«2x»

E|--12--15--17--17--17--15--12--|--9--8--7--------------------------------------|--------------
B|------------------------------|-----------9--8--7-----------------------------|--------------
G|------------------------------|--------------------9--8--7--------------------|--------------
D|------------------------------|-----------------------------9--8--7-----------|--------------
A|------------------------------|--------------------------------------9--8--7--|--2--5--7--2--
E|------------------------------|-----------------------------------------------|--0--3--5--0--

« 2x

E|-----------------------------------------------------------------------------------------------
B|-----------------------------------------------------------------------------------------------
G|-----------------------------------------------------------------------------------------------
D|-----------------------------------------------------------------------------------------------
A|--5--9--2--3--2--5--7--2--3--2--5--9--2--3--2--5--7--9--7--5--3--2--------------7--------------
E|--3--7--0--1--0--3--5--0--1--0--3--7--0--1--0--3--5--7--5--3--1--0--0--0--0--0--5--0--0--0--0--
pm: . . . . . . . .
»

E|---------------------------------------------------------------------------------------|--
B|---------------------------------------------------------------------------------------|--
G|---------------------------------------------------------------------------------------|--
D|---------------------------------------------------------------------------------------|--
A|--9--------------7--------------9--10--------------7--------------9--------------7--6--|--
E|--7--0--0--0--0--5--0--0--0--0--7--8---0--0--0--0--5--0--0--0--0--7--0--0--0--0--5--4--|--
pm: . . . . . . . . . . . . . . . . . . . .
«

E|----------------------------------------------------------------------------------|--14h15p14--
B|------------------------------------------------------------------------------15--|------------
G|--------------------4h5p4-----4h5p4-----4h5p4-----4h5p4-------------------14------|------------
D|-----------4--5--6---------5---------5---------5---------5--7--9--12--15----------|------------
A|--4--5--6-------------------------------------------------------------------------|------------
E|----------------------------------------------------------------------------------|------------

2x »

E|------13h14p13------12h13p12------11h12p11----------------------|-------------------|--
B|--15------------14------------13------------12--12--13--14--15--|-------------------|--
G|------------------------------------------------11--12--13--14--|--15--14--13--12---|--
D|----------------------------------------------------------------|--14--13--12--11v--|--
A|----------------------------------------------------------------|-------------------|--
E|----------------------------------------------------------------|-------------------|--



E|------------------------------------------------------------------------------------------------
B|------------------------------------------------------------------------------------------------
G|--9--11--12--11--9--11--11--12--11--10--12--13--12--10--12--13--12--11--13--14--13--11--13--14--
D|------------------------------------------------------------------------------------------------
A|------------------------------------------------------------------------------------------------
E|------------------------------------------------------------------------------------------------



E|-------------------------------------------------------------------|----------------
B|-------------------------------------------------------------------|---------19-----
G|--13--12--14--15--14--12--14--15--14--13--15--16--15--13--15--16v--|--16--18b18-----
D|-------------------------------------------------------------------|----------------
A|-------------------------------------------------------------------|----------------
E|-------------------------------------------------------------------|----------------



E|---------------------------------------------------|------------------------------------------
B|---------------------------------------------------|--15------14------13------12------15------
G|--16------16-------------19------------------------|------14------14------14------14------13--
D|------18------18--16--18b18p16------16---------19--|------------------------------------------
A|--------------------------------18------18--16b18--|------------------------------------------
E|---------------------------------------------------|------------------------------------------

« 2x

E|-----------------------------------------------------------|-----------------------------------
B|--14------13------12------15------14------13------12-------|-----------------------------------
G|------13------13------13------12------12------12------12v--|-----------------------------------
D|-----------------------------------------------------------|-----------2--5-----------2--7-----
A|-----------------------------------------------------------|--3--3--3--0--3--5--5--5--0--5--7--
E|-----------------------------------------------------------|--1--1--1--------3--3--3--------5--

2x »

E|-----------------------------------------------------------------------------------------------
B|-----------------------------------------------------------------------------------------------
G|-----------------------------------------------------------------------------------------------
D|-----------------------------------------------------------------------------------------------
A|--7--7--5--5--3--3--2-----------7--6-----------7--6-----------7--9-----------7--6-----------7--
E|--5--5--3--3--1--1--0--0--0--0--5--4--0--0--0--5--4--0--0--0--5--7--0--0--0--5--4--0--0--0--5--
pm: . . . . . . . . . . . . . . .


E|----------------------------------------------------------------------------------------------|--
B|----------------------------------------------------------------------------------------------|--
G|--------------------------------------------------------------------------------------11--10--|--
D|------------------------------------------------------------------------------11--10----------|--
A|--6-----------7--9-----------7--6-----------7--6-----------7--12--12--11--10------------------|--
E|--4--0--0--0--5--7--0--0--0--5--4--0--0--0--5--4--0--0--0--5--10------------------------------|--
pm: . . . . . . . . . . . .


E|--------------------------------------------------------------------------------------------------
B|--------------------------------------------------------------------------------------------------
G|--10--12--13--12--10--12--13--12--11--13--14--13--11--13--14--13--12--14--15--14--12--14--15--14--
D|--------------------------------------------------------------------------------------------------
A|--------------------------------------------------------------------------------------------------
E|--------------------------------------------------------------------------------------------------



E|-------------------------------|--
B|-------------------------------|--
G|--13--15--16--15--13--15--16v--|--
D|-------------------------------|--
A|-------------------------------|--
E|-------------------------------|-- repeat this on 1 and 2 strings



E|----------------------------------------------|-----------------------------------------------
B|----------------------------------------------|-----------------------------------------------
G|--------------------------------------11--10--|--10--12--13--12--10--12--13--12--11--13--14v--
D|------------------------------11--10----------|-----------------------------------------------
A|--9--7--5--7--12--12--11--10------------------|-----------------------------------------------
E|--7--5--3--5--10------------------------------|-----------------------------------------------



E|--|-----------------------------------------
B|--|-----------------------------------------
G|--|-----------------------------------------
D|--|-------------(7)-9b7--7p9------------(2)-
A|--|--9--7--5--7-(5)-----------7p9--9--3-(2)-
E|--|--7--5--3--5--------------------7--1-(0)-
http://www.guitartabcreator.com
Guitar Tab Creator is intended to store guitar tab created through the tool. It currently does not support in-line text editing. Any text you place in here will be lost. If you need to comment on your tab, please use the "Tab Notes" section located below.