THE UNDEAD SONG

(/) Slide Up  (\) Slide Down  (h) Hammer On  (p) Pull Off  (b) Bend (r) Release (v) Vibrato
E|-----|--|--------------------------------|--|-----------------------|--|-----------------------
B|-----|--|--------------------------------|--|-----------------------|--|-----------------------
G|-----|--|--------------------------------|--|--------------5--4--4--|--|-----------------------
D|--2--|--|--------------------------------|--|--------------3--2--2--|--|-----------------------
A|--2--|--|--------------------------------|--|-----------------------|--|-----------------------
E|--0--|--|--0--0--0--0--0--0--0--0--0--0--|--|--0--0--0--0-----------|--|--0--0--0--0--0--0--0--



E|-----------|--------------------|--------------------------------|-----------------|--|--
B|-----------|--------------------|--------------------------------|-----------------|--|--
G|-----------|--------------5--4--|--------------------------------|--------------5--|--|--
D|-----------|--------------3--2--|--------------------------------|--------------3--|--|--
A|-----------|--------------------|--------------------------------|-----------------|--|--
E|--0--0--0--|--0--0--0--0--------|--0--0--0--0--0--0--0--0--0--0--|--0--0--0--0-----|--|--



E|--------------------------------------|--------------------|--------------|--|--------------
B|--------------------------------------|--------------------|--------------|--|--------------
G|--------------------------------------|--------------------|--------------|--|--------------
D|--------------------------------------|--------------------|-----5--6--7--|--|--------------
A|--7--5-----5--------------------------|--7--5-----5--------|-----3--4--5--|--|--------------
E|--------7-----7--6--5--3--5--0--3--5--|--------7-----7--6--|--5-----------|--|--0--0--5--7--



E|--------------|--------------------------|--|--------------------------|--------------------
B|--------------|--------------------------|--|--------------------------|--------------------
G|--------------|--------------------------|--|--------------------------|--------------------
D|--------------|-----------5-----6-----7--|--|--------------------------|-----------5-----6--
A|--8--7--5--7--|-----------3-----4-----5--|--|--------------------------|-----------3-----4--
E|--------------|--0--0--0-----0-----0-----|--|--0--0--0--0--0--0--0--0--|--0--0--0-----0-----



E|--------|--------------------------|--------------------------|--|-----------------------
B|--------|--------------------------|--------------------------|--|-----------------------
G|--------|--------------------------|--------------------------|--|--------4--------------
D|-----7--|--------------------------|-----------5-----6-----7--|--|--2--2-----2-----------
A|-----5--|--------------------------|-----------3-----4-----5--|--|--------------2--5--5--
E|--0-----|--0--0--0--0--0--0--0--0--|--0--0--0-----0-----0-----|--|-----------------------



E|-----------|--------------------------------|---------------------|----------|------------
B|-----------|--------------------------------|--3p2-----3p2-----3--|--3p2-----|------------
G|--2--------|--------4--------------2--------|-------4-------2-----|-------4--|--2\4--2\4--
D|-----2-----|-----------2--------------2-----|---------------------|----------|------------
A|--------5--|--3--3--------3--2--2--------2--|---------------------|----------|------------
E|-----------|--------------------------------|---------------------|----------|------------



E|-------|---------------------|-------|--14--19--|--17--15--14--15------|------------------
B|--2h3--|--2-------2--3p2-----|-------|----------|------------------15--|------------------
G|-------|-----2\4----------2--|--2\4--|----------|----------------------|--7p6--7--9p7--9--
D|-------|---------------------|-------|----------|----------------------|------------------
A|-------|---------------------|-------|----------|----------------------|------------------
E|-------|---------------------|-------|----------|----------------------|------------------



E|--------|---------------------|--------------------------------------------------|----------
B|--------|---------------------|--------------------------------------12----------|------12--
G|--11p9--|--11--11/12--12--11--|----------11--12--14----------11--12--------------|--11------
D|--------|---------------------|------12------------------12------------------12--|----------
A|--------|---------------------|--14------------------14------------------14------|----------
E|--------|---------------------|--------------------------------------------------|----------



E|----------12------------------|--------------|--|-----------------------------|--------------
B|--14--15------15--14--12--14--|--14--15--12--|--|-----------------------------|--------------
G|------------------------------|--------------|--|--------------------0--------|--------------
D|------------------------------|--------------|--|--------3--2-----------3--2--|--------3-----
A|------------------------------|--------------|--|-----2-----------2-----------|-----2-----5--
E|------------------------------|--------------|--|--0-----------0--------------|--0-----------



E|------------|-----------------------------|------------------------|--|-----------------
B|------------|-----------------------------|------------------------|--|-----------------
G|------------|--------------------0--------|------------------------|--|-----------------
D|------------|--------3--2-----------3--2--|--------3---------------|--|-----------------
A|--0h3h5--5--|-----2-----------2-----------|-----2-----5--0h3h5--5--|--|--4--2--2--2--2--
E|------------|--0-----------0--------------|--0---------------------|--|--2--0--0--0--0--



E|--------------------|---------------------------------------|-----------------|--------
B|--------------------|---------------------------------------|-----------------|--------
G|--------------------|---------------------------------------|-----------------|--------
D|--------------------|---------------------------------------|-----------------|--------
A|--4--5--6--2--2--2--|--4--2--2--2--2--4--5--12--12--12--12--|--4--2--2--2--2--|--------
E|--2--3--4--0--0--0--|--2--0--0--0--0--2--3--10--10--10--10--|--2--0--0--0--0--|--3--2--



E|-----------|-----------------------|-----------------------------|-----------------|--------
B|-----------|-----------------------|-----------------------------|-----------------|--------
G|-----------|-----------------------|-----------------------------|-----------------|--------
D|-----------|-----------------------|-----------------------------|-----------------|--------
A|--2--2--2--|--------5--5--5--5--5--|--------2--2--------2--2--2--|--------2--2--2--|--------
E|--0--0--0--|--2--3--3--3--3--3--3--|--3--2--0--0--3--2--0--0--0--|--3--2--0--0--0--|--2--3--



E|-----------------|-----------------------------|------------------------|-----------|--------
B|-----------------|-----------------------------|------------------------|-----------|--------
G|-----------------|--------------------0--------|------------------------|-----------|--9-----
D|-----------------|--------3--2-----------3--2--|--------3---------------|--5--7--9--|--------
A|--5--5--5--5--5--|-----2-----------2-----------|-----2-----5--0h3h5--5--|-----------|--------
E|--3--3--3--3--3--|--0-----------0--------------|--0---------------------|-----------|--------



E|-----7---------------------|--------------------7---------|------------------------------------|--
B|--8--------8--7-----8------|-----8-----7--8--------8------|------------12----------------------|--
G|--------9--------9-----7v--|--7-----9--------9--------9v--|--9--11--9--11b11p9------12--11--9--|--
D|---------------------------|------------------------------|---------------------11-------------|--
A|---------------------------|------------------------------|------------------------------------|--
E|---------------------------|------------------------------|------------------------------------|--



E|-----------------9------11------|--------------------------------------------------------------
B|-----10------10-----10------10--|--10--12--15--17--15--14--15----------------------------------
G|--9------11---------------------|------------------------------17--15--14--15------------------
D|--------------------------------|----------------------------------------------17--15--14--15--
A|--------------------------------|--------------------------------------------------------------
E|--------------------------------|--------------------------------------------------------------



E|------------------------------------------|--------------15--14------------------------------
B|--------------------------15--14--15--17--|--19--17--15----------15--------------------------
G|--------------15--14--15------------------|--------------------------14--17--18--17--14--16--
D|--15--14--15------------------------------|--------------------------------------------------
A|------------------------------------------|--------------------------------------------------
E|------------------------------------------|--------------------------------------------------



E|------------------|--------------------------------------------------------------
B|------------------|--17--16--15--14----------17----------------------------------
G|--17--17--17--14--|------------------15--14--------------------------------------
D|------------------|------------------------------15--14--------------12--14--15--
A|------------------|--------------------------------------12--14--15--------------
E|------------------|--------------------------------------------------------------
http://www.guitartabcreator.com
Guitar Tab Creator is intended to store guitar tab created through the tool. It currently does not support in-line text editing. Any text you place in here will be lost. If you need to comment on your tab, please use the "Tab Notes" section located below.