throught the fire and flammes solo

(/) Slide Up  (\) Slide Down  (h) Hammer On  (p) Pull Off  (b) Bend (r) Release (v) Vibrato


E|--------------------------------------------------------------------------
B|--------------------------------------------------------------------------
G|-------------8------12--12--12--10--10--10--8--8--8--10--8----------------
D|--8p10p8p10-----10------------------------------------------12--8--10-----
A|--------------------------------------------------------------------------
E|--------------------------------------------------------------------------



E|-----------------------------------------------------------------------
B|-----------------------------------------------------------------------
G|-------------8------12--12--12--10--10--10--8--8--8--10--8-------------
D|--8p10p8p10-----10------------------------------------------12--8--10--
A|-----------------------------------------------------------------------
E|-----------------------------------------------------------------------
http://www.guitartabcreator.com
Guitar Tab Creator is intended to store guitar tab created through the tool. It currently does not support in-line text editing. Any text you place in here will be lost. If you need to comment on your tab, please use the "Tab Notes" section located below.