solo

(/) Slide Up  (\) Slide Down  (h) Hammer On  (p) Pull Off  (b) Bend (r) Release (v) Vibrato


E|--------------------------------------------------------------------------------------
B|--------------------------------------------------------------------------------------
G|--13----------------------------------17----------15----------------------------------
D|------17--15--13--17--15------17--15------15--17------17--15------15--17------17--15--
A|--------------------------13----------------------------------17----------15----------
E|--------------------------------------------------------------------------------------



E|-----------------------------------------------------------------------------------------------------
B|--------------------------------------------------------------8-----8--10--8--10--12--10--12--15-----
G|--7--------5-----------------------------------7-----7--9--7-----9-----------------------------------
D|-----5--7-----7--5-----5--7-----7--5--9--7--9-----9--------------------------------------------------
A|--------------------7--------5-----------------------------------------------------------------------
E|-----------------------------------------------------------------------------------------------------



E|----------12------12--
B|--12--15------15------
G|----------------------
D|----------------------
A|----------------------
E|----------------------
http://www.guitartabcreator.com
Guitar Tab Creator is intended to store guitar tab created through the tool. It currently does not support in-line text editing. Any text you place in here will be lost. If you need to comment on your tab, please use the "Tab Notes" section located below.