chanson 2

(/) Slide Up  (\) Slide Down  (h) Hammer On  (p) Pull Off  (b) Bend (r) Release (v) Vibrato
E|-----------------------------------------------------------------------------------------------
B|-----------------------------------------------------------------------------------------------
G|-----------------------------------------------------------------------------------------------
D|-----------5--------7-----------9-----------5-----7-----9-----------9-----------7-----------5--
A|--------3--------5-----------7-----------3-----5-----7-----------7-----------5-----------3-----
E|--0--0--------0--------0--0--------0--0--------------------0--0--------0--0--------0--0--------



E|-----------------------------------------------------------------------------------------------
B|-----------------------------------------------------------------------------------------------
G|-----------------------------------------------------------------------------------------------
D|-----------9-----7-----5--------5--------7--------9--------5--7--9--------9--------7--------5--
A|--------7-----5-----3-----------3--------5--------7--------3--5--7--------7--------5--------3--
E|--0--0--------------------0--0-----0--0-----0--0-----0--0-----------0--0-----0--0-----0--0-----



E|-----------------------------------------------------------------------------------------------
B|-------------------------------3h4-------------------------------------------------------------
G|----------------------------5-------5--5--5--5--7--7--7--7--9--7--9--10--9--7-----9--7--9--10--
D|--------9--7--5--3h4-----5-------------------3--5--------5--7------------------7--7------------
A|--------7--5--3-------5------------------------------------------------------------------------
E|--0--0-----------------------------------------------------------------------------------------



E|-----------------------------------------------------------------------------------------------
B|----------------------------------------------------8--7h8p7-----------------------------------
G|--9--7-----9--7--9--10--9--7-----9--7--9--10--9--7------------9--9--9--11--11--11--11--14--12--
D|--------8--7------------------9--7----------------------------------7--9-----------9---12------
A|-----------------------------------------------------------------------------------------------
E|-----------------------------------------------------------------------------------------------



E|-------------------------------------------------------------------------------------------------
B|-------------------------------------------------------------------------------------------------
G|--14--15--14--12------14--12--14--15--14--12------14--12--14--15--14--12------14--12--14--15-----
D|------------------12--12----------------------13--12----------------------14--12-----------------
A|-------------------------------------------------------------------------------------------------
E|-------------------------------------------------------------------------------------------------



E|------------------------------------------|-----------------------------------------------------
B|--------------------------------------13--|-----------------------------------------------------
G|--14--12------14--12--14--15--14--12------|-----------------------------------------------------
D|----------15--12--------------------------|-----------------------------------------------------
A|------------------------------------------|-----------------------------------------------------
E|------------------------------------------|--0--0--0--0--3--2--0--0--0--0--0--3--2--0--0--0--0--



E|-----------------------------------------------
B|-----------------------------------------------
G|-----------------------------------------------
D|-----------------------------------------------
A|-----------------------------------0--0--0--0--
E|--0--3--2--0--0--0--0--0--3--4--0--------------repeat this on 12345 strings



E|--------------------------------------------------------------------------------------------
B|--------------------------------------------------------------------------------------------
G|--------------------------------------------------------------------------------------------
D|--------------------------------------------------------------------------------------------
A|-----------------------------------------------------------4--------------------------------
E|--0--0--0--0--0--2--3--0--0--0--0--0--2--3--0--0--0--0--0--2--0--0--0--0--0--2--3--0--0--0--



E|-----------------------------------------------------------------------------------------------
B|-----------------------------------------------------------------------------------------------
G|-----------------------------------------------------------------------------------------------
D|-----------------------------------------------------------------------------------------------
A|-----------------------------------5-----------------4--5-----------------4--5-----------------
E|--0--0--2--3--0--0--0--0--0--2--3--3--0--0--0--0--0--2--3--0--0--0--0--0--2--3--0--0--0--0--0--



E|-----------------------------------------------------------------------------------------------
B|-----------------------------------------------------------------------------------------------
G|-----------------------------------------------------------------------------------------------
D|-----------------------------------------------------------------------------------------------
A|--4--5--7-----------------7--8-----------------7--8-----------------7--8--5--4--5--------------
E|--2--3--5--0--0--0--0--0--5--6--0--0--0--0--0--5--6--0--0--0--0--0--5--6--3--2--3--0--0--0--0--



E|--------------------------------------------------------------------------------------------
B|--------------------------------------------------------------------------------------------
G|--------------------------------------------------------------------------------------------
D|--------------------------------------------------------------------------------------------
A|-----4--5--7--8--7--4--5--7--8--7--4--5--7--8--7--4--5--7--8--7--6--7--7--7--7--7--6--5--4--
E|--0--2--3--5--6--5--2--3--5--6--5--2--3--5--6--5--2--3--5--6--5--4--5-----------------------



E|-----------------------------------|------------------------------------------------------
B|-----------------------------------|------------------------------------------------------
G|-----------------------------------|------------------------------------------------------
D|-----------------------------------|------------------------------------------------------
A|--3--2--7--7--7--7--6--5--4--8--9--|--17--17--17--17--16--15--14--13--12--17--17--17--17--
E|-----------------------------------|------------------------------------------------------



E|------------------------------------------------------------------------------------------
B|------------------------------------------------------------------------------------------
G|------------------------------------------19----------13----------------------------------
D|----------------------17--15--19--17--15------17--15------17--15--13--17--15------17--15--
A|--16--15--14--18--19----------------------------------------------------------13----------
E|------------------------------------------------------------------------------------------



E|----------------------------------------------------------------------------------------
B|----------------------------------------------------------------------------------------
G|--17----------15------------------------------------7--------5--------------------------
D|------15--17------17--15------15--17------17--15/7-----5--7-----7--5-----5--7-----7--5--
A|--------------------------17----------15------------------------------7--------5--------
E|----------------------------------------------------------------------------------------



E|----------------------------------------------------------|-----------------------
B|--6--7-----7--6-----7--6-----6--7------6--7--4--7--6------|-----------------------
G|--------6--------8--------8--------6v-----------------8v--|-----------------------
D|----------------------------------------------------------|-----------------------
A|----------------------------------------------------------|--7--6--5--4--2--------
E|----------------------------------------------------------|--5--4--3--2--0--0--0--



E|-----------------------------------
B|-----------------------------------
G|-----------------------------------
D|--------------------------7--8--7--
A|--5--2--------7--2--------5--6--5--
E|--3--0--0--0--5--0--0--0-----------
http://www.guitartabcreator.com
Guitar Tab Creator is intended to store guitar tab created through the tool. It currently does not support in-line text editing. Any text you place in here will be lost. If you need to comment on your tab, please use the "Tab Notes" section located below.