chanson 1

(/) Slide Up  (\) Slide Down  (h) Hammer On  (p) Pull Off  (b) Bend (r) Release (v) Vibrato
E|---------------------------------------------------------------------------------|--
B|---------------------------------------------------------------------------------|--
G|------------------------------------------------------------------------7--5--4--|--
D|--------5--------5--6--------6--7--------7--8--------8--9--------9--10--5--3--2--|--
A|--4--4--3--4--4--3--4--5--5--4--5--6--6--5--6--7--7--6--7--8--8--7--8------------|--
E|--2--2-----2--2--------3--3--------4--4--------5--5--------6--6------------------|--



E|--------------------------------------------------------------|-----------------------
B|--------------------------------------------------------------|-----------------------
G|--5--7--9-----9--7-----7--5--------------7--9-----9--7--5-----|-----------------------
D|--3--5--7--9--7--5--7--5--3--5--7--9--7--5--7--9--7--5--3--5--|-----------------5--6--
A|-----------7--------5--------3--5--7--5--------7-----------3--|--3--5--3--6--3--3--4--
E|--------------------------------------------------------------|-----------------------



E|----------------------------------------------------------------------------------------
B|----------------------------------------------------------------------------------------
G|----------------------------------------------------------------------------------------
D|-----------------6--7-----------------7--8-----------------8--9------------------9--10--
A|--4--6--4--7--4--4--5--5--7--5--8--5--5--6--6--8--6--9--6--6--7--7--9--7--10--7--7--8---
E|----------------------------------------------------------------------------------------



E|-----------------------
B|-----------------------
G|-----------------------
D|-------------------11--
A|--8--10--8--11--8------
E|-----------------------



E|----------------------------------------------------|-----------------------------------------
B|----------------------------------------------------|-----------------------------------------
G|----------------------------------------------------|-----------------------------------------
D|-------------------10--11-------------------11--12--|-----------------------------------------
A|--8--10--8--11--8--8---9---9--11--9--12--9--9---10--|-----------------7--8-----------------9--
E|----------------------------------------------------|--0--0--0--0--0--5--6--0--0--0--0--0--7--
pm: . . . . . . . . . .


E|--------------------|------------------------------------------------------------------
B|--------------------|------------------------------------------------------------------
G|--------------------|------------------------------------------------------------------
D|--------------------|------------------------------------------------------------------
A|--8-----------------|--------------------8--------------------9--------------------10--
E|--6--0--0--0--0--0--|--0--0--0--0--0--0--6--0--0--0--0--0--0--7--0--0--0--0--0--0--8---
pm: . . . . . . . . . . . . . . . . . . . . . . .


E|----------------------------------------------------------------------------------------------
B|----------------------------------------------------------------------------------------------
G|----------------------------------------------------------------------------------------------
D|----------------------------------------------------------------------------------------------
A|--------------------8--9--10--------------------10--------------------9--------------------8--
E|--0--0--0--0--0--0--6--7--8---0--0--0--0--0--0--8---0--0--0--0--0--0--7--0--0--0--0--0--0--6--
pm: . . . . . . . . . . . . . . . . . . . . . . . .


E|------------------------------|--------------------------------------------------------------
B|------------------------------|--------------------------------------------------------------
G|------------------------------|--------------------------------------------------------------
D|------------------------------|--------------------------------------------------------------
A|--------------------10--9--8--|--4--------------5-----------6--------------7--------------8--
E|--0--0--0--0--0--0--8---7--6--|--2--2--2--2--2--3--3--3--3--4--4--4--4--4--5--5--5--5--5--6--
pm: . . . . . .


E|------------------------------------------------------------------------------------------------
B|------------------------------------------------------------------------------------------------
G|------------------------------------------------------------------------------------------------
D|------------------------------------------------------------------------------------------------
A|--------------9--------------10--------------11--------------12--12--12--12--12--11--11--11-----
E|--6--6--6--6--7--7--7--7--7--8---8--8--8--8--9---9--9--9--9--10------------------9--------------



E|---------------------------------------------------------------------------------------------
B|---------------------------------------------------------------------------------------------
G|---------------------------------------------------------------------------------------------
D|---------------------------------------------------------------------------------------------
A|--11--11--10--10--10--10--10--9--9--9--9--9--8--8--8--8--8--7--7--7--7--7--6--6--6--6--6--5--
E|----------8-------------------7--------------6--------------5--------------4--------------3--



E|-----------------|--------------------------------------------------------------------------
B|-----------------|--------------------------------------------------------------------------
G|-----------------|--------------------------------------------------------------------------
D|-----------------|--2--2--2--2--3--3--3--3--4--4--4--4--5--5--5--5--6--6--6--6--7--7--7--7--
A|--5--5--5--5--4--|--0--0--0--0--0--0--0--0--0--0--0--0--0--0--0--0--0--0--0--0--0--0--0--0--
E|--------------2--|--------------------------------------------------------------------------



E|--------------------------------------------------------------------------------------------------
B|--------------------------------------------------------------------------------------------------
G|--------------------------------------------------------------------------------------------------
D|--8--8--8--9--9--9--9--10--10--10--10--11--11--11--11--12--12--12--12--12--11--11--11--10--10-----
A|--0--0--0--0--0--0--0--0---0---0---0---0---0---0---0---0---0---0---0-----------9-----------8------
E|--------------------------------------------------------------------------------------------------



E|------------------------------------------------------------------------------------------
B|---------------------------------------------------------------------------------2--4--5--
G|------------------------------------------------------------------------2--4--5-----------
D|--10--9--9--8--8--8--7--7--7--6--6--6--5--5--5--4--4-----------2--4--5--------------------
A|---------------6--------5--------4--------3--------2--2--4--5-----------------------------
E|------------------------------------------------------------------------------------------



E|--2--3/12--------------10--13--12--10--12--13------13--12--10--12--13------13--12--10--12--13-----
B|-------------------10--------------------------10----------------------11-------------------------
G|---------------12---------------------------------------------------------------------------------
D|-----------12-------------------------------------------------------------------------------------
A|--------------------------------------------------------------------------------------------------
E|--------------------------------------------------------------------------------------------------



E|------13--12--10--12--13--------------------------------------------------------------------------
B|--12----------------------10--12--13--12--10--------------------------16--------------------------
G|----------------------------------------------------------18--17--15------15--17--18--------------
D|----------------------------------------------15--17--18------------------------------18--17--15--
A|--------------------------------------------------------------------------------------------------
E|--------------------------------------------------------------------------------------------------



E|--------------------------18--17--15------------------17--15------------------17--15--------------
B|--------------18--17--15--------------16----------16----------16----------16----------16----------
G|--18--17--15------------------------------17--15------------------17--15------------------17--15--
D|--------------------------------------------------------------------------------------------------
A|--------------------------------------------------------------------------------------------------
E|--------------------------------------------------------------------------------------------------



E|------17--15------------------17--15------------------17--15------------------17--15--------------
B|--16----------16----------16----------16----------16----------16----------16----------16----------
G|------------------17--15------------------17--15------------------17--15------------------17--15--
D|--------------------------------------------------------------------------------------------------
A|--------------------------------------------------------------------------------------------------
E|--------------------------------------------------------------------------------------------------



E|------17--15----------------------------------------------------------------13--12------12-----
B|--16----------16-----18b16----------16----------------------------------15----------10---------
G|------------------15b17-----18--17------18--17----------------------14-------------------------
D|------------------------------------------------15--18--17--14---------------------------------
A|----------------------------------------------------------------15-----------------------------
E|-----------------------------------------------------------------------------------------------



E|--13------13--14------14--15------15--16------16--17--
B|------11----------12----------13----------14----------
G|------------------------------------------------------
D|------------------------------------------------------
A|------------------------------------------------------
E|------------------------------------------------------
http://www.guitartabcreator.com
Guitar Tab Creator is intended to store guitar tab created through the tool. It currently does not support in-line text editing. Any text you place in here will be lost. If you need to comment on your tab, please use the "Tab Notes" section located below.