song 1

(/) Slide Up  (\) Slide Down  (h) Hammer On  (p) Pull Off  (b) Bend (r) Release (v) Vibrato


E|-------------------------------------------------------------------------
B|-------------------------------------------------------------------------
G|-------------------------------------------------------------------------
D|-------------------------------------------------------------------------
A|-------------------------------------------------------------------------
E|--12--12--12--9--9--9--7--5--7--9----12--12--12--9--9--9--7--5--7--9--7--



E|--------------------------------------------------------------------------
B|--------------------------------------------------------------------------
G|--------------------------------------------------------------------------
D|--------------------------------------------------------------------------
A|--------------------------------------------------------------------------
E|--12--12--12--9--9--9--7--5--7--9--12--12--12--9--9--9--7--5--7--9--7--5--



E|-----------------------------------------15h17--14--13--15--12--14--11--13--10--12-----------------------------------------------------9--
B|----------------------------------15h17---------------------------------------------11--13--12--13--15--12--14--11--13--10--12--9--11-----
G|-----------------------15h17--17----------------------------------------------------------------------------------------------------------
D|----------------15h17---------------------------------------------------------------------------------------------------------------------
A|---------15h17----------------------------------------------------------------------------------------------------------------------------
E|--15h17-----------------------------------------------------------------------------------------------------------------------------------
http://www.guitartabcreator.com
Guitar Tab Creator is intended to store guitar tab created through the tool. It currently does not support in-line text editing. Any text you place in here will be lost. If you need to comment on your tab, please use the "Tab Notes" section located below.