Under The Blackest Moon

(/) Slide Up  (\) Slide Down  (h) Hammer On  (p) Pull Off  (b) Bend (r) Release (v) Vibrato

E|--------------------------------------------------
B|-----------8-----------8-----------7-----------7--
G|--------9-----------9-----------8-----------8-----
D|-----9-----------9-----------8-----------8--------
A|--7-----------7-----------6-----------6-----------
E|--------------------------------------------------



E|----------------------------------------------------------------
B|--------------11--------------11-------------10-------------10--
G|----------12--------------12-------------11-------------11------
D|------12--------------12-------------11-------------11----------
A|--10--------------10--------------9--------------9--------------
E|----------------------------------------------------------------



E|------------------------------
B|--8--8--7--7--11--11--10--10--
G|--9--9--8--8--12--12--11--11--
D|--9--9--8--8--12--12--11--11--
A|--7--7--6--6--10--10--9---9---
E|------------------------------



E|-------------------------------------------------------
B|-------------------------------------------------------
G|-------------------------------------------------------
D|--9-----------8-----------12--------------11-----------
A|--7--7--7--7--6--6--6--6--10--10--10--10--9---9--9--9--
E|-------------------------------------------------------



E|-----------------------------------------------------------------------------------
B|-----------------------------------------------------------------------------------
G|-----------------------9--9--9--9--9--9--9--8--8--8--8--8--8-----------------------
D|--7--7--7--7--7--7--7-----------------------------------------8--8--8--8--8--8--8--
A|-----------------------------------------------------------------------------------
E|-----------------------------------------------------------------------------------



E|-----------------------------------------------------------------------------------
B|-----------------------------------------------------------------------------------
G|-----------------------------------------------------------------------------------
D|-----------------------9--9--9--9--9--9--9--8--8--8--8--8--8--8--------------------
A|--7--7--7--7--7--7--7--------------------------------------------8--8--8--8--8--8--
E|-----------------------------------------------------------------------------------



E|--------------------------------------------------------------------------------
B|--------------------------------------------------------------------------------
G|--------------------------------------------------------------------------------
D|--------------------9--9--9--9--9--9--8--8--8--8--8--8--12--12--12--12--12--12--
A|--7--7--7--7--7--7--------------------------------------------------------------
E|--------------------------------------------------------------------------------
http://www.guitartabcreator.com
Guitar Tab Creator is intended to store guitar tab created through the tool. It currently does not support in-line text editing. Any text you place in here will be lost. If you need to comment on your tab, please use the "Tab Notes" section located below.