patka

(/) Slide Up  (\) Slide Down  (h) Hammer On  (p) Pull Off  (b) Bend (r) Release (v) Vibrato

E|--------------------------------------------------------------------------
B|--------------------------------------------------------------------------
G|-----------0-----0--------------------------------------------------------
D|--------7-----------4-----0-----7--5--0--3--2--0--0-----7--5--0--3--2--0--
A|-----5-----------------3--0--5--------0--3--2--0--0--5--------0--3--2--0--
E|--0-----------0-----------0-----------0--3--2--0--0-----------0--3--2--0--



E|--------------------
B|--------------------
G|--------------------
D|--3--2--0--3--2--0--
A|--3--2--0--3--2--0--
E|--3--2--0--3--2--0--



E|------------------------------------
B|------------------------------------
G|------------------------------------
D|--0--0--3--2--0--0-----0--0------3--
A|--0--0--3--2--0--0--0--0--0------3--
E|--0--0--3--2--0--0--0--0--0------3--



E|--------------------------------
B|--------------------------------
G|--------------------------------
D|--0-----7--5-----0-----------5--
A|--0--5--------6--0-----------5--
E|--0--------------0--0--0--0--5--
http://www.guitartabcreator.com
Guitar Tab Creator is intended to store guitar tab created through the tool. It currently does not support in-line text editing. Any text you place in here will be lost. If you need to comment on your tab, please use the "Tab Notes" section located below.