Riff1

Intro

Clean
E|----------------------- x2
B|-----------------------
G|-----------------------
D|-5-5-5-5/7-7--5-5-5-5/7
A|-3-5-3-3/5-5--3-5-3-5/7
E|---3------------3---3/5

E|----------
B|----------
G|----------
D|-5-5-5-5/7
A|-3-5-3-5/7
E|---3---3/5

Dist.
E|----------------------- x4
B|-----------------------
G|-----------------------
D|-5-5-5-5/7-7--5-5-5-5/7
A|-3-5-3-3/5-5--3-5-3-5/7
E|---3------------3---3/5
Guitar Tab Creator is intended to store guitar tab created through the tool. It currently does not support in-line text editing. Any text you place in here will be lost. If you need to comment on your tab, please use the "Tab Notes" section located below.