Random Riff1

(/) Slide Up  (\) Slide Down  (h) Hammer On  (p) Pull Off  (b) Bend (r) Release (v) Vibrato


E|-------------------------
B|-------------------------
G|-------------------------
D|-------------------------
A|-----1-----------1-------
E|-1-4---4-3-1-1-4---4-3-1-



E|-------------------------
B|-------------------------
G|-------------------------
D|-------------------------
A|-----3-----------3-------
E|-3-6---6-5-3-3-6---6-5-3-



E|-------------------------
B|-------------------------
G|-------------------------
D|-------------------------
A|-----1-----------1-------
E|-1-4---4-3-1-1-4---4-3-1-



E|-------------------------
B|-------------------------
G|-------------------------
D|-------------------------
A|-----5-----------5-------
E|-5-8---8-7-5-5-8---8-7-5-
http://www.guitartabcreator.com
Guitar Tab Creator is intended to store guitar tab created through the tool. It currently does not support in-line text editing. Any text you place in here will be lost. If you need to comment on your tab, please use the "Tab Notes" section located below.