Porn Star Dancing Acoustic Solo

(/) Slide Up  (\) Slide Down  (h) Hammer On  (p) Pull Off  (b) Bend (r) Release (v) Vibrato
E|--------------------------------------|-----------------------------|--
B|--11b13--11b13--11b13--11b13--9-------|-------9---------------------|--
G|---------------------------------10v--|--6/8-----10--8--------------|--
D|--------------------------------------|-----------------10--8-------|--
A|--------------------------------------|------------------------11v--|--
E|--------------------------------------|-----------------------------|--



E|------------------------------11--10--8-------------------------|--
B|--11b13--11b13--11b13--11b13-------------11--10--8--10--10b11v--|--
G|----------------------------------------------------------------|--
D|----------------------------------------------------------------|--
A|----------------------------------------------------------------|--
E|----------------------------------------------------------------|--



E|------------------------------------------------------------------|--
B|--11--9--11--9------9--11--9--11--11b13--11b13--11b13--9h11-------|--
G|----------------10-------------------------------------------10v--|--
D|------------------------------------------------------------------|--
A|------------------------------------------------------------------|--
E|------------------------------------------------------------------|--



E|--------------------------------------------6h8h9----------8h9h11----------13--
B|------------------------------3h4h6--6h8h9---------8h9h11----------8h9h11------
G|-----------------------3h4h6---------------------------------------------------
D|----------------5h6h8----------------------------------------------------------
A|---------5h6h8-----------------------------------------------------------------
E|--4h5h7------------------------------------------------------------------------



E|--13--15--16--18v--|--
B|-------------------|--
G|-------------------|--
D|-------------------|--
A|-------------------|--
E|-------------------|--
http://www.guitartabcreator.com
Guitar Tab Creator is intended to store guitar tab created through the tool. It currently does not support in-line text editing. Any text you place in here will be lost. If you need to comment on your tab, please use the "Tab Notes" section located below.