El Mariachi

(/) Slide Up  (\) Slide Down  (h) Hammer On  (p) Pull Off  (b) Bend (r) Release (v) Vibrato
E|------------------------------|----------------------------------|-------------------|-----
B|------------------------------|----------------------------------|-------------------|-----
G|--9h10--9--7------7v--9-------|----------9v--7-------------------|-------------------|-----
D|--------------10---------10v--|-------7---------10--9v--6-----7--|--7--9--10--9--7v--|-----
A|------------------------------|--7h8-----------------------7-----|-------------------|-----
E|------------------------------|----------------------------------|-------------------|-----



E|-------------------------------------|---------------------------|----------------------|--
B|-------------------------------------|---------------------------|------------------8v--|--
G|------------------7--9--9h10--9--7v--|--9--7------7--------------|--5/7--10--7----------|--
D|--7--9--10--9--7---------------------|--------10-----10--9--10v--|--------------9v------|--
A|-------------------------------------|---------------------------|----------------------|--
E|-------------------------------------|---------------------------|----------------------|--



E|--------------------------------------------------8--10--12--10--8-------------13--11--10--8--
B|---------------------------------------8--10--12--------------------12--10--8-----------------
G|-----------------------------7--9--10---------------------------------------------------------
D|--------------------5--7--9-------------------------------------------------------------------
A|-----------5--7--8----------------------------------------------------------------------------
E|--5--7--8-------------------------------------------------------------------------------------
http://www.guitartabcreator.com
Guitar Tab Creator is intended to store guitar tab created through the tool. It currently does not support in-line text editing. Any text you place in here will be lost. If you need to comment on your tab, please use the "Tab Notes" section located below.