Betcha Can't Play This 1

(/) Slide Up  (\) Slide Down  (h) Hammer On  (p) Pull Off  (b) Bend (r) Release (v) Vibrato


E|-------5-9-5-------------9-12-9----------------12-15-12----------------15-17-15-------
B|-----8-------8--------10--------10----------14----------14----------17----------17----
G|-6-9-----------9-9-12--------------12-12-14----------------14-14-18----------------18-
D|--------------------------------------------------------------------------------------
A|--------------------------------------------------------------------------------------
E|--------------------------------------------------------------------------------------



E|----------17-20/21-17----17-------------------------------------------------------------
B|-------20-------------20----17-20----17-------------------------------------------------
G|-18-21----------------------------20----20-19-17----17-18----17-------------------------
D|-------------------------------------------------19-------19----17-19----17----------19-
A|----------------------------------------------------------------------19----18-17\16----
E|----------------------------------------------------------------------------------------
http://www.guitartabcreator.com
Guitar Tab Creator is intended to store guitar tab created through the tool. It currently does not support in-line text editing. Any text you place in here will be lost. If you need to comment on your tab, please use the "Tab Notes" section located below.