Hermonics

(/) Slide Up  (\) Slide Down  (h) Hammer On  (p) Pull Off  (b) Bend (r) Release (v) Vibrato

E|--------------------------------------------------------------------------------------------------
B|--------------------------------------------------------------------------------------------------
G|----------12------12--------------12------12--------------12------12--------------12------12------
D|------12------12--------------12------12--------------12------12--------------12------12----------
A|--12------------------12--12------------------12--12------------------12--12------------------12--
E|--------------------------------------------------------------------------------------------------



E|--------------------------------------------------------------------------------------------------
B|--------------------------------------------------------------------------------------------------
G|------------------12----------------------12----------------------12----------------------12------
D|----------12--12------12----------12--12------12----------12--12------12----------12--12------12--
A|--12--12------------------12--12------------------12--12------------------12--12------------------
E|--------------------------------------------------------------------------------------------------



E|--
B|--
G|--
D|--
A|--
E|--
http://www.guitartabcreator.com
Guitar Tab Creator is intended to store guitar tab created through the tool. It currently does not support in-line text editing. Any text you place in here will be lost. If you need to comment on your tab, please use the "Tab Notes" section located below.