song

(/) Slide Up  (\) Slide Down  (h) Hammer On  (p) Pull Off  (b) Bend (r) Release (v) Vibrato

E|-----------------------
B|-----------------------
G|-----5--4--2-----------
D|--2-----------5--4--5--
A|-----------------------
E|-----------------------



E|-----------------------------------
B|-----------------------------------
G|-----------4--5--4-----------------
D|--2--2--2-----------5--5--5--4--5--
A|-----------------------------------
E|-----------------------------------



E|--------------
B|--------------
G|--------------
D|--0--0--0--1--
A|--0--0--0--1--
E|--0--0--0--1--
http://www.guitartabcreator.com
Guitar Tab Creator is intended to store guitar tab created through the tool. It currently does not support in-line text editing. Any text you place in here will be lost. If you need to comment on your tab, please use the "Tab Notes" section located below.