big tires

(/) Slide Up  (\) Slide Down  (h) Hammer On  (p) Pull Off  (b) Bend (r) Release (v) Vibrato

E|--------------------------------------------------------
B|--------------------------------------------------------
G|--7--------------8--------------------------------------
D|--------------------------------------------------------
A|--5--------------6--------------5--6--5-----------------
E|-----0--0--0--0-----0--0--0--0-----------7--8--7--5--7--



E|-----------------------------------------------------------
B|-----------------------------------------------------------
G|--7--------------8-----------------------------------------
D|--------------------------------5h6p5p0--------------------
A|--5--------------6-----------------------6--5--3--6--2--5--
E|-----0--0--0--0-----0--0--0--0-----------------------------



E|--------------------------------------------------------
B|--------------------------------------------------------
G|--7--------------8--------------------------------------
D|--------------------------------7h8p7p0-----------------
A|--5--------------6-----------------------8--7--5--8--4--
E|-----0--0--0--0-----0--0--0--0--------------------------



E|-------------------------------------------
B|-------------------------------------------
G|-------------------------------------------
D|---8---7-----------------------------------
A|---6---5---6---7---6---7---6---0---6---3---
E|-----------6---7---6---7---6---0---6---3---



E|--------------------------------------------------
B|--------------------------------------------------
G|--------------------------------------------------
D|--------------------------------------------------
A|--5--6-----------------------5--4-----------------
E|--------0--7--8--0--4--7--0--------0--7--6--3--6--



E|--------------------------------------------------
B|--------------------------------------------------
G|--------------------------------------------------
D|--------------------------------------------------
A|--3--4-----------------------3--2-----------------
E|--------0--5--6--0--2--5--0--------0--5--4--1--4--



E|--------------------------------------
B|--------------------------------------
G|--------------------------------------
D|--------------------------------------
A|--2--1--0--6--0--1--2--1--0--2--1--0--
E|--2--1--0--6--0--1--2--1--0--2--1--0--



E|-----------------------------------
B|-----------------------------------
G|-----------------7-----------------
D|-----------------7-----------------
A|--2--1--0--6--0--5--6--3--6--3--2--
E|--2--1--0--6--0-----6--3--6--3--2--



E|---------------------------------------------------
B|---------------------------------------------------
G|---------------------------------------------------
D|---------------------------------------------------
A|--8--7--8--7--8--7--8--7--8--7--8--7--9--10--9--8--
E|--6--5--6--5--6--5--6--5--6--5--6--5--7--8---7--6--



E|--------------------------------------------------------
B|--------------------------------------------------------
G|--------------------------------------------------------
D|--------------------------------------------------------
A|--8--7--8--7--8--7--8--7--8--7--8--7--5--4--7--5--4--3--
E|--6--5--6--5--6--5--6--5--6--5--6--5--3--2--5--3--2--1--



E|--------------------------------------------------------------------------------------------
B|--------------------------------------------------------------------------------------------
G|--------------------------------------------------------------------------------------------
D|-----------------------------------------------------------------------------4--3-----------
A|-----------------------------------------------------------------------3--4--------6--5--2--
E|--2--1--0--6--0--0--0--1--1--4--1--0--4--1--0--2--1--0--6--0--0--0--1-----------------------



E|-----------------------------------------------
B|-----------------------------------------------
G|-----------------------------------------------
D|--------------------------7--------------------
A|--------------------------5--6--5--3--6--2--5--
E|--2--1--0--6--0--0--0--1-----6--5--3--6--2--5--
http://www.guitartabcreator.com
Guitar Tab Creator is intended to store guitar tab created through the tool. It currently does not support in-line text editing. Any text you place in here will be lost. If you need to comment on your tab, please use the "Tab Notes" section located below.