Sakura

(/) Slide Up  (\) Slide Down  (h) Hammer On  (p) Pull Off  (b) Bend (r) Release (v) Vibrato


E|-----------7--5--7--5--3--2--3--2--3--2--------
B|--0--3--5--------------------------------3--0--
G|-----------------------------------------------
D|-----------------------------------------------
A|-----------------------------------------------
E|-----------------------------------------------



E|-----------7--5--7--5--3--2--3--5--5--10----------
B|--0--3--5---------------------------------10--12--
G|--------------------------------------------------
D|--------------------------------------------------
A|--------------------------------------------------
E|--------------------------------------------------



E|-----------7--5--7--5--3--2--3--2--3--2--------
B|--0--3--5--------------------------------3--0--
G|-----------------------------------------------
D|-----------------------------------------------
A|-----------------------------------------------
E|-----------------------------------------------



E|-----------------------------
B|--5--7--8--5--7--3--0--3--5--
G|-----------------------------
D|-----------------------------
A|-----------------------------
E|-----------------------------



E|-----------------10------
B|--5--7--8--5--7------12--
G|-------------------------
D|-------------------------
A|-------------------------
E|-------------------------
http://www.guitartabcreator.com
Guitar Tab Creator is intended to store guitar tab created through the tool. It currently does not support in-line text editing. Any text you place in here will be lost. If you need to comment on your tab, please use the "Tab Notes" section located below.