bohemian rhapsody-queen

E|-----------------------------8--10--11--8--10--11b12------13--15--16--18--18b19--
B|----------------11--8--11b9---------------------------13-------------------------
G|-----10b11--10-------------------------------------------------------------------
D|--8------------------------------------------------------------------------------
A|---------------------------------------------------------------------------------
E|---------------------------------------------------------------------------------



E|--18--16--15--16--15h16p15------15------------------------------------
B|----------------------------18------18--16--15--16--15h16p15----------
G|--------------------------------------------------------------17--15--
D|----------------------------------------------------------------------
A|----------------------------------------------------------------------
E|----------------------------------------------------------------------



E|----------------------15--16--18----------------------15--16--18b20-----
B|----------15--16--18----------------------15--16--18--------------------
G|--15--17--------------------------15--17--------------------------------
D|------------------------------------------------------------------------
A|------------------------------------------------------------------------
E|------------------------------------------------------------------------



E|-----------------------------------------------------13-----9--9--9------
B|--15--16------15--16------15--16--16b17------------------9---------------
G|----------17----------17-----------------10--12--13----------------------
D|---------------------------------------------------------------------11--
A|-------------------------------------------------------------------------
E|------------------------------------------------------------------------- http://www.guitartabcreator.com
Guitar Tab Creator is intended to store guitar tab created through the tool. It currently does not support in-line text editing. Any text you place in here will be lost. If you need to comment on your tab, please use the "Tab Notes" section located below.