RED IS THE COLOUR OF LOVE: By John Platanitis. Copyright, 2011

(/) Slide Up  (\) Slide Down  (h) Hammer On  (p) Pull Off  (b) Bend (r) Release (v) Vibrato
E|-----------5--------------------0--------------------5------------------------------
B|-----3--------------3-----3--------------3-----3--------------3---------------------
G|--------2--------2-----------2--------2-----------2--------2------------------------
D|--0-----------0----------------------------------------------------------0/2/4\2p0--
A|-----------------------4-----------4--------1-----------1-----------0h2-------------
E|-----------------------------------------------------------------3------------------



E|-----------5-----------------------0--0h2p0--------------5--------------------0-----
B|-----3--------------3--------3---------------3-----3--------------3--2-----3--------
G|--------2--------2-----2--------2---------------------2--------0--------2-----------
D|--0-----------0---------------------------------------------------------------------
A|--------------------------4---------------------2-----------2--------0--------------
E|------------------------------------------------------------------------------------



E|-------0-----3--------3-----------3--2--------2--------------------5-----------------------
B|--2h3--------------0-----------0-----------0-----------0--5-----------------5--------------
G|----------2-----0-----------0-----------2-----------2--------7-----------7-----7--6--------
D|----------------------------------------------------------7-----7--------------------7-----
A|--0----------------------------------2-----------2--------0-----------0-----------0--------
E|-------------0-----------0-----------------------------------------------------------------



E|-----5-----------3--------3-----------2--------2h3--3p2p0--------------5--------------------
B|--5-----------5--------0-----------0--------0--------------5--------5-----------5--5--------
G|-----------7--------0-----------0--------2-----------------------7-----7-----7--------------
D|-----------------------------------------------------------7--7-----------7--------7--7-----
A|--------0-----------------------------2--------------------0-----------0-----------0--------
E|-----------------0-----------0--------------------------------------------------------------



E|------------------
B|--5h7p5-----------
G|---------7--6--7--
D|------------------
A|--0---------------
E|------------------
http://www.guitartabcreator.com
Guitar Tab Creator is intended to store guitar tab created through the tool. It currently does not support in-line text editing. Any text you place in here will be lost. If you need to comment on your tab, please use the "Tab Notes" section located below.