Mio

(/) Slide Up  (\) Slide Down  (h) Hammer On  (p) Pull Off  (b) Bend (r) Release (v) Vibrato
E|-----------------3---3-----------------3---3---------0-1---2-3-4-5-3-6-3-
B|-3-1-3-1-------3---3---3-1-3-1-------3---3---4-1-3-4-----3---------------
G|---------3-0-3-----------------3-0-3-------------------------------------
D|-------------------------------------------------------------------------
A|-------------------------------------------------------------------------
E|-------------------------------------------------------------------------



E|--------------3--5--2--3--
B|--4--1--3--4--------------
G|--------------------------
D|--------------------------
A|--------------------------
E|--------------------------
http://www.guitartabcreator.com
Guitar Tab Creator is intended to store guitar tab created through the tool. It currently does not support in-line text editing. Any text you place in here will be lost. If you need to comment on your tab, please use the "Tab Notes" section located below.