Apache - The Shadows

(/) Slide Up  (\) Slide Down  (h) Hammer On  (p) Pull Off  (b) Bend (r) Release (v) Vibrato
E|------------------3/5--3--0--|--------------------------|--------------------------|--
B|-----1--3v-----1-------------|--------------------------|-----3-----3--------------|--
G|--2---------2----------------|-----2-----2--------------|--2-----2-----4--2--0--2--|--
D|-----------------------------|--2-----2-----4--2--0--2--|--------------------------|--
A|-----------------------------|--------------------------|--------------------------|--
E|-----------------------------|--------------------------|--------------------------|--



E|-----------------|-----------------------------------------------------|-
B|-----------------|-----------------------------------------------------|-
G|---2---2---------|-----------------------------------------------------|-
D|-2---2---4-2-0-2-|---3-3-3-3-3---3-3-3-3-3---3-3-3-3-3---3-3-3-3-3-2-0-|-
A|-----------------|-3-----------3-----------3-----------3---------------|-
E|-----------------|-----------------------------------------------------|-



E|----------------------------------------------------|-
B|----------------------------------------------------|-
G|----------------------------------------------------|-
D|---3-3-3-3-3---3-3-3-3-3---3-3-3-3-3---3-3-3-3-3-2v-|-
A|-3-----------3-----------3-----------3--------------|-
E|----------------------------------------------------|-



E|-------------0-------------------------3-----6----|-------------0-------|-
B|-----1-0-1-3---3-1-------1-0-1-3---3/5---5/8---8v-|-----1-0-1-3---3-1---|-
G|---2---------------2---2---------0----------------|---2---------------2-|-
D|-3-------------------3----------------------------|-3-------------------|-
A|--------------------------------------------------|---------------------|-
E|--------------------------------------------------|---------------------|-



E|-----------------------------------------------------|---
B|-----------------------------------------------------|---
G|-----------------------------------------------------|---
D|---3-3-3-3-3---3-3-3-3-3---3-3-3-3-3---3-3-3-3-3-2-0-|---
A|-3-----------3-----------3-----------3---------------|---
E|-----------------------------------------------------|---



E|----------------------------------------------------|-
B|----------------------------------------------------|-
G|----------------------------------------------------|-
D|---3-3-3-3-3---3-3-3-3-3---3-3-3-3-3---3-3-3-3-3-2v-|-
A|-3-----------3-----------3-----------3--------------|-
E|----------------------------------------------------|-



E|-----------------------------------------------|---------------------------------------------|-
B|-----------------------------------------------|---------------------------------------------|-
G|---2-2-2-2-2---2-----------------2-2-------2---|---2-2-2-2-2---2---------------2-2-------2---|-
D|-2-----------2---2-4-4-4-4-4-2-2-----2-0-0---2-|-2-----------2---2-4-4-4-4-2-2-----2-0-0---2-|-
A|-----------------------------------------------|---------------------------------------------|-
E|-----------------------------------------------|---------------------------------------------|-



E|-------------------------------------|-----------------------------------------------|-
B|---3-3-3-3-3---3-----------------3---|---------------------------------2-2-------2---|-
G|-2-----------2---2-4-4-4-4-4-2-0---2-|---2-2-2-2-2---2---4-4-4-4-4-2-2-----2-0-0---2-|-
D|-------------------------------------|-2-----------2---2-----------------------------|-
A|-------------------------------------|-----------------------------------------------|-
E|-------------------------------------|-----------------------------------------------|-



E|-0-
B|-1-
G|-2-
D|-2-
A|-0-
E|---
http://www.guitartabcreator.com
Guitar Tab Creator is intended to store guitar tab created through the tool. It currently does not support in-line text editing. Any text you place in here will be lost. If you need to comment on your tab, please use the "Tab Notes" section located below.