Easygoers Solo

(/) Slide Up  (\) Slide Down  (h) Hammer On  (p) Pull Off  (b) Bend (r) Release (v) Vibrato


E|-12-12-12-12-12-12-12-12-12-12-12-12-12-12-12-12-12-|-
B|----------------------------------------------------|-
G|----------------------------------------------------|-
D|----------------------------------------------------|-
A|----------------------------------------------------|-
E|----------------------------------------------------|-



E|-12h14h16h18b19r18p16p14p12b13-------------12-14-15-16-16-17-18-19---
B|-------------------------------------12-14---------------------------
G|-------------------------------12-14---------------------------------
D|---------------------------------------------------------------------
A|---------------------------------------------------------------------
E|---------------------------------------------------------------------



E|---------------------12h14h15-17-17-17-17-17-17-17-17-17-17-17-17-17-
B|------------12h14h15-------------------------------------------------
G|-12v-h14h15----------------------------------------------------------
D|---------------------------------------------------------------------
A|---------------------------------------------------------------------
E|---------------------------------------------------------------------



E|-17b19r17--------------
B|-----------------------
G|-----------------------
D|----------12h14h16-15v-
A|-----------------------
E|-----------------------
http://www.guitartabcreator.com
Guitar Tab Creator is intended to store guitar tab created through the tool. It currently does not support in-line text editing. Any text you place in here will be lost. If you need to comment on your tab, please use the "Tab Notes" section located below.