Beautiful Mess

(/) Slide Up  (\) Slide Down  (h) Hammer On  (p) Pull Off  (b) Bend (r) Release (v) Vibrato

E|-----------2-----3--3--3p2--------0--------------------3-----------3--
B|--------3-----3-------------3--------3-----------------3--------3--3--
G|-----2-------------------------2--------2-----------0--------0--------
D|--0----------------------------------------0-----0--------2-----------
A|----------------------------------------------2-----------3-----------
E|----------------------------------------------3-----------------------



E|--2--2--2--3--3--2--2--3--3--3--3--3--3--3--3--3--3--3--3--
B|--3--3--3--3--3--3--3--3--3--3--3--3--3--3--3--3--3--3--3--
G|--2--2--2--2--2--2--2--0--0--0--0--0--0--0--0--0--0--0--0--
D|--0--0--0--0--0--0--0--0--0--2--0--0--0--2--2--2--2--2--2--
A|-----------------------2--2--2--2--2--2--3--3--3--3--3--3--
E|-----------------------3--3--3--3--3--3--------------------



E|--0--0--0--0--0--3--3--3--3--3--3--3--3--3--3--
B|--0--0--0--0--0--3--3--3--3--3--1--1--1--1--1--
G|--0--0--0--0--0--0--0--0--0--0--0--0--0--0--0--
D|--2--2--2--2--2--0--0--0--0--0--2--2--2--2--2--
A|--2--2--2--2--2--2--2--2--2--2--0--0--0--0--0--
E|--0--0--0--0--0--3--3--3--3--3--3--3--3--3--3--



E|---9---9v---11h12---11---9---7------------------9v---5------------------------------------
B|---------------------------------9h11---9---9------------5v-------------------------------
G|------------------------------------------------------------------------------------------
D|----------------------------------------------------------------------5---7---6---9-------
A|--------------------------------------------------------------5---7-----------------------
E|------------------------------------------------------------------------------------------



E|---------------------11b11v---r11v---
B|-----------10---12-------------------
G|---6---8-----------------------------
D|-------------------------------------
A|-------------------------------------
E|-------------------------------------



E|-----------2--3p2-----0--
B|--------3----------3-----
G|-----2-------------------
D|--0----------------------
A|-------------------------
E|-------------------------
http://www.guitartabcreator.com
Guitar Tab Creator is intended to store guitar tab created through the tool. It currently does not support in-line text editing. Any text you place in here will be lost. If you need to comment on your tab, please use the "Tab Notes" section located below.