The Ghost of You

(/) Slide Up  (\) Slide Down  (h) Hammer On  (p) Pull Off  (b) Bend (r) Release (v) Vibrato
E|---------------------------------------------------------------------------------------------
B|--------------------------------------------------------------------12--7h8--9---------------
G|-----7-----11--7-----7-----11--7-----7-----7-----7-----7-----11--7--------------9--11--7-----
D|--9-----9---------9-----9---------9-----9-----9-----9-----9----------------------------------
A|---------------------------------------------------------------------------------------------
E|---------------------------------------------------------------------------------------------



E|------------------------------------------------------------------------------------------------
B|------------------------------------------------------------------------------------------------
G|--9--6--7--6-----9--11--7--9--6--7--6--9--11-------------12----------14------------------11-----
D|--------------9-------------------------------12--11---------12--11------12--11--12--14---------
A|------------------------------------------------------------------------------------------------
E|------------------------------------------------------------------------------------------------



E|-----------------------------------------------------------------------------------------------
B|-----------------------------------------------------------------------------------------------
G|---------------------------------11-----12-----11-----9--11-----11-----12-----11-----9--11-----
D|--12--11--12--11--14--12--11--9------9------9------9---------9------9------9------9------------
A|-----------------------------------------------------------------------------------------------
E|-----------------------------------------------------------------------------------------------



E|------------------------------------------------------------------------------------------------
B|------------------------------------------------------------------------------------------------
G|--11/14--14--12--11---------------------14--12--11--12--11--------------------------------------
D|---------------------12/14--14--14--12----------------------14--12--12--12--12--12--12--12--12--
A|----------------------------------------------------------------10--10--10--10--10--10--10--10--
E|------------------------------------------------------------------------------------------------



E|-----------------------------------------------------------------------------------------------------
B|-----------------------------------------------------------------------------------------------------
G|-----------------------------------------------------------------------------------------------------
D|--14--14--14--14--15--15--15--15--12--12--12--12--12--12--12--12--11--11--11--11--11--11--11--11-----
A|--12--12--12--12--14--14--14--14--10--10--10--10--10--10--10--10--9---9---9---9---9---9---9---9------
E|-----------------------------------------------------------------------------------------------------



E|----------
B|----------
G|----------
D|--12--12--
A|--10--10--
E|----------
http://www.guitartabcreator.com
Guitar Tab Creator is intended to store guitar tab created through the tool. It currently does not support in-line text editing. Any text you place in here will be lost. If you need to comment on your tab, please use the "Tab Notes" section located below.