test

(/) Slide Up  (\) Slide Down  (h) Hammer On  (p) Pull Off  (b) Bend (r) Release (v) Vibrato


E|-----------------------------------------------------------------------------------------------
B|-----------------------------------17----------------------------------16----------------------
G|-5------------------------------------19-10-------------------15----13-------------------------
D|---3-------------------------------------------------14-16-15----18-------20-11-14-------------
A|-----13-13-13-13-13-13-13-13----19----------13-14-14-------------------------------15-15-------
E|-----------------------------11----------------------------------------------------------11-11-



E|------------------------------------------------------------
B|------------------------------------------------------------
G|----13--------------------------------17-15----10-----------
D|-11-------------10-10-9-9----12-13-15-------19----9---------
A|-------13-11-10-----------11------------------------9-------
E|------------------------------------------------------15-16-
http://www.guitartabcreator.com
Guitar Tab Creator is intended to store guitar tab created through the tool. It currently does not support in-line text editing. Any text you place in here will be lost. If you need to comment on your tab, please use the "Tab Notes" section located below.