Stretchmarker-Baroness

(/) Slide Up  (\) Slide Down  (h) Hammer On  (p) Pull Off  (b) Bend (r) Release (v) Vibrato

E|---------------------------------------------------------------------------------------------------
B|---------------------------------------------------------------------------------------------------
G|----------0------0------0-----0------0------0-----0------0------0-----0------0---------------------
D|---------------------------------------------------------------------------------------------------
A|--12--13-----12-----10-----8---------------------------------------8---------------------------13--
E|---------------------------------11-----10-----8-----10-----11-----------11-----8--10--13--10------



E|-------------------------------------------------------------
B|-------------------------------------------------------------
G|----------0------0------0------0------0------0------0-----0--
D|--12--13-----12-----10-----12-----13-----12-----10-----8-----
A|-------------------------------------------------------------
E|-------------------------------------------------------------



E|------------------------------------------------------
B|------------------------------------------------------
G|----------0---------0--------0--0--7--0--10--0--7--0--
D|--10--12-----8--10-----7--8---------------------------
A|------------------------------------------------------
E|------------------------------------------------------



E|------------------------------------------------------------------------------------------
B|--8--11--11-------------------------------------11----------------------------------------
G|-------------7--10--10--------------10--12--10------10--12--------------------------------
D|------------------------10--11--12----------------------------------------------8--10--8--
A|----------------------------------------------------------------------8--9--10--8--8---8--
E|------------------------------------------------------------8--9--10----------------------



E|----------------------------------------------------------------------------------------
B|----------------------------------------------------------------------------------------
G|--10--12--0--10--0--8--0--7--0--10--0--8--0--7--0------0----------0---------0--------5--
D|---------------------------------------------------10-----10--12-----8--10-----7--8--7--
A|----------------------------------------------------------------------------------------
E|----------------------------------------------------------------------------------------
http://www.guitartabcreator.com
Guitar Tab Creator is intended to store guitar tab created through the tool. It currently does not support in-line text editing. Any text you place in here will be lost. If you need to comment on your tab, please use the "Tab Notes" section located below.