Bulldozer - Intro/Verses

(/) Slide Up  (\) Slide Down  (h) Hammer On  (p) Pull Off  (b) Bend (r) Release (v) Vibrato


E|------13--------------13--------------13--------------13-------------
B|--------------13--------------13--------------13--------------13-----
G|----------14--------------14--------------14--------------14---------
D|--15--------------15--------------15--------------15-----------------
A|---------------------------------------------------------------------
E|---------------------------------------------------------------------



E|------13--------------13--------------13--------------13----------
B|----------13--------------13--------------13--------------13------
G|--------------14--------------14--------------14--------------14--
D|--15--------------15--------------15--------------15--------------
A|------------------------------------------------------------------
E|------------------------------------------------------------------



E|-----1-----------1-----------1-----------1--------
B|-----------2-----------2-----------2-----------2--
G|--------2-----------2-----------2-----------2-----
D|--3-----------3-----------3-----------3-----------
A|--------------------------------------------------
E|--------------------------------------------------



E|-----1-----------1-----------1-----------1--------
B|--------1-----------1-----------1-----------1-----
G|-----------2-----------2-----------2-----------2--
D|--3-----------3-----------3-----------3-----------
A|--------------------------------------------------
E|--------------------------------------------------
http://www.guitartabcreator.com
Guitar Tab Creator is intended to store guitar tab created through the tool. It currently does not support in-line text editing. Any text you place in here will be lost. If you need to comment on your tab, please use the "Tab Notes" section located below.