something

(/) Slide Up  (\) Slide Down  (h) Hammer On  (p) Pull Off  (b) Bend (r) Release (v) Vibrato


E|-----------------------------------------------------------------------
B|-------------------------------------------------10--------------------
G|---------4-----------4b5r4-0-------------12-11--------11-12-11---------
D|-----5-----2---5-------------2/5-----9---------9----9----------12-9-12-
A|-3-3---3-----3---3-3-------------7-7---7-------------------------------
E|-----------------------------------------------------------------------



E|------------------------------------------------------------------------
B|-------------------------------------------------------------12h13------
G|---------4-----------4b5r4-0---------12---11\9---14---12-----------12v--
D|-----5-----2---5-------------2v-----------------------------------------
A|-3-3---3-----3---3-3----------------------------------------------------
E|---------------------------------0-0----0------0----0----0-0------------



E|---------------------------------------------------------------------------
B|-------------------------------------------------12---12-10----10----------
G|---------4-----5---5-4-2-4-2-0-----------12-11--------------12----12-11-12-
D|-----5-----2-------------------4-----9---------9----9----------------------
A|-3-3---3-----3---3---------------7-7---7-----------------------------------
E|---------------------------------------------------------------------------



E|-------------------------------------------------------------------------------
B|-------------------------------------------------------------12h13p12----------
G|---------4-----------4-5-4-----------12---11\9---14---12--------------14p12----
D|-----5-----2---5-----------5-4----------------------------------------------14-
A|-3-3---3-----3---3-3-----------5-----------------------------------------------
E|---------------------------------0-0----0------0----0----0-0-------------------
http://www.guitartabcreator.com
Guitar Tab Creator is intended to store guitar tab created through the tool. It currently does not support in-line text editing. Any text you place in here will be lost. If you need to comment on your tab, please use the "Tab Notes" section located below.