Spiderwebs

(/) Slide Up  (\) Slide Down  (h) Hammer On  (p) Pull Off  (b) Bend (r) Release (v) Vibrato


E|--------------------------
B|--------------------------
G|--------------------------
D|--------------------------
A|--6--6--5--5--------------
E|--------------8--8--6--5--



E|---------------------------------------------------------
B|---------------------------------------------------------
G|-----------------------------------10--------------------
D|--------8--------8--------8------------------------5--8--
A|---------------------------------------------5--8--------
E|--6--6-----6--6-----6--6-----6--6------6--8--------------



E|-------------------------------------------------
B|-------------------------------------------------
G|-------------------------------------------------
D|--------------------5--5--5--7--7--7--8--10--12--
A|--6--6--6--8--8--8-------------------------------
E|-------------------------------------------------
http://www.guitartabcreator.com
Guitar Tab Creator is intended to store guitar tab created through the tool. It currently does not support in-line text editing. Any text you place in here will be lost. If you need to comment on your tab, please use the "Tab Notes" section located below.