Glad You Came Tab - Uke

(/) Slide Up  (\) Slide Down  (h) Hammer On  (p) Pull Off  (b) Bend (r) Release (v) Vibrato


E|-----------12--10--7--7--7------------------12--10--7--7--7---------
B|----------------------------10--8----------------------------10--8--
G|--9--9--9--------------------------9--9--9--------------------------
D|--------------------------------------------------------------------
A|--------------------------------------------------------------------
E|--------------------------------------------------------------------



E|-----------12--10--7--7--7------7--10--------------12--10--7--7--7------------
B|----------------------------10---------8----------------------------10--8-----
G|--9--9--9---------------------------------9--9--9--------------------------9--
D|------------------------------------------------------------------------------
A|------------------------------------------------------------------------------
E|------------------------------------------------------------------------------
http://www.guitartabcreator.com
Guitar Tab Creator is intended to store guitar tab created through the tool. It currently does not support in-line text editing. Any text you place in here will be lost. If you need to comment on your tab, please use the "Tab Notes" section located below.