First Song (Drop B)

(/) Slide Up  (\) Slide Down  (h) Hammer On  (p) Pull Off  (b) Bend (r) Release (v) Vibrato
E|-------------------------------------------------------------------------------------------
B|-------------------------------------------------------------------------------------------
G|-------------------------13-------12-------13-------------------------12-------13-------12-
D|-10-10-10-10-10-10-10-10----10-10----10-10----10-10-10-10-10-10-10-10----10-10----10-10----
A|-------------------------------------------------------------------------------------------
E|-------------------------------------------------------------------------------------------



E|-------------------------------------------------------
B|-------------------------------------------------------
G|-------------------------------------------------------
D|-------------------------------------------------------
A|---------------------------------------------------3-7-
E|-0-0----0-0----0-0-0-0-0----0-0-0-0----0-0-0-0-3-7-----



E|-----------------------------------------------------
B|-----------------------------------------------------
G|-----------------------------------------------------
D|-----------------------------------------------------
A|-----------------------------------------------------
E|-0-0----0-0----0-0-0-0-0----0-0-0-0----0-0-0-0-5-7-6-



E|--------------------------------------------
B|--------------------------------------------
G|--------------------------------------------
D|--------------------------------------------
A|--------------------------------------------
E|--0--0--5h6--0--5h6--5h6--0--5h6--0--5h6/3--



E|-----------------------------------------
B|-----------------------------------------
G|-----------------------------------------
D|-----------------------------------------
A|-----------------------------------------
E|--0--0--5h6/3--3--3--3--3\6--6--6--6--6--



E|-------------------------------------------------------------------------------------
B|-------------------------------------------------------------------------------------
G|-------------------------------------------------------------------------------------
D|----------12----------12------12--------7--------7-----7--------5--------5-----5-----
A|------10----------10-----------------5--------5--------------3--------3--------------
E|--10----------10----------10------5--------5--------5-----3--------3--------3--------



E|----------------------
B|----------------------
G|----------------------
D|--------8--8----8--8--
A|-----6-----6----6--6--
E|--6--------6----6--6--



E|-------------------------------------------------------------
B|-------------------------------------------------------------
G|-------------------------------------------------------------
D|-----------------6-----5-----6-----------------5-----6-----5-
A|-3-3-3-3-3-3-3-3---3-3---3-3---3-3-3-3-3-3-3-3---3-3---3-3---
E|-------------------------------------------------------------
http://www.guitartabcreator.com
Guitar Tab Creator is intended to store guitar tab created through the tool. It currently does not support in-line text editing. Any text you place in here will be lost. If you need to comment on your tab, please use the "Tab Notes" section located below.