Jesse

(/) Slide Up  (\) Slide Down  (h) Hammer On  (p) Pull Off  (b) Bend (r) Release (v) Vibrato
E|-------------------------------|-------------------------------|--
B|-------------------------------|-------------------------------|--
G|--6--6--6--6--6--6--6----6--6--|--6--6--6--6--6--6--6----6--6--|--
D|--7--7--7--7--7--7--7----7--7--|--7--7--7--7--7--7--7----7--7--|--
A|--0--0--0--0--0--0--0----0--0--|--5--5--5--5--5--5--5----5--5--|--
E|-------------------------------|-------------------------------|--



E|-----------------------------------------------|--
B|--------3--------3--------3--------3--------3--|--
G|-----0--------0--------0--------0--------0-----|--
D|--4--------4--------4--------4--------4--------|--
A|-----------------------------------------------|--
E|-----------------------------------------------|--



E|---------------------------------------------------------|--
B|---------------------------------------------------------|--
G|--6--6--6--6--6--6--6--6-----------------4--6--4--2----4b|--
D|--7--7--7--7--7--7--7--7-----------------0--0--0--0------|--
A|--0--0--0--0--0--0--0--0---------------------------------|--
E|---------------------------------------------------------|--
http://www.guitartabcreator.com
Guitar Tab Creator is intended to store guitar tab created through the tool. It currently does not support in-line text editing. Any text you place in here will be lost. If you need to comment on your tab, please use the "Tab Notes" section located below.