Twas A Dream

(/) Slide Up  (\) Slide Down  (h) Hammer On  (p) Pull Off  (b) Bend (r) Release (v) Vibrato


E|-----------------------------
B|-----------------------------
G|-----------------------------
D|-----------------------------
A|--5--7--5--7--5--7--9--7--5--
E|-----------------------------



E|-----------------
B|-----------------
G|-----------------
D|-----------------
A|--5--------------
E|-----3--6--5--3--



E|-----------------------------------------------------------------------------
B|-----------------------------------------------------------------------------
G|-----------------------------------12--14--12h14--12--11h12--11--9h11--9--7--
D|-----------------------------------------------------------------------------
A|--5--7--5--7--5--7--9--7--5--7--5--------------------------------------------
E|-----------------------------------------------------------------------------
http://www.guitartabcreator.com
Guitar Tab Creator is intended to store guitar tab created through the tool. It currently does not support in-line text editing. Any text you place in here will be lost. If you need to comment on your tab, please use the "Tab Notes" section located below.