Llyvwridth

(/) Slide Up  (\) Slide Down  (h) Hammer On  (p) Pull Off  (b) Bend (r) Release (v) Vibrato

E|-----------
B|-----------
G|-----------
D|-----------
A|--7--7--7--
E|-----------



E|----------------------------------------
B|----------------------------------------
G|----------------------------------------
D|--4-----4--5-----4----------------------
A|-----5--------5-----5--5--4h5--5--4--2--
E|----------------------------------------



E|--------------------------
B|--------------------------
G|--------------------------
D|--------------------------
A|--------7--5--------7--6--
E|--7--8--------7--8--------



E|--------------------------------------
B|--------------------------------------
G|--------------------------------------
D|-----------------------7--9-----------
A|--8--7--8--10/7--8--7--------7--7--7--
E|--------------------------------------



E|------------------------------------------------------------
B|------------------------------------------------------------
G|--7--5---------------------------------7--5-----------------
D|--------7--8--5--4h5--4h5--------------------6--8--5--4--5--
A|---------------------------6--5--6--3-----------------------
E|------------------------------------------------------------



E|--------------------------------------------------------------------------------------------------------------
B|--------------------------------------------------------------------------------------------------------------
G|-----------------------------8--------------8--------------7--------------7--------------5--------------5-----
D|--------------------------8-----8--------8-----8--------7-----7--------7-----7--------5-----5--------5-----5--
A|--6--6--5--5--3--3--6--6-----------6--6-----------5--5-----------5--5-----------3--3-----------3--3-----------
E|--------------------------------------------------------------------------------------------------------------



E|-----------------------------------------
B|-----------------------------------------
G|-----------------------------------------
D|-----------------------------------------
A|--6--6--3--3--6--6--3--3--3--3--3--3--5--
E|-----------------------------------------



E|--------------------------------------------------
B|--------------------------------------------------
G|--------------------------------------------------
D|--------------------------------------------------
A|--6-----------------------6--6--------------5--6--
E|-----7--6--7--6--4--2--4--------7--6--7--6--------



E|-----
B|-----
G|-----
D|-----
A|--6--
E|-----
http://www.guitartabcreator.com
Guitar Tab Creator is intended to store guitar tab created through the tool. It currently does not support in-line text editing. Any text you place in here will be lost. If you need to comment on your tab, please use the "Tab Notes" section located below.