Fortunate Assembly

(/) Slide Up  (\) Slide Down  (h) Hammer On  (p) Pull Off  (b) Bend (r) Release (v) Vibrato
E|-------------------------------------------------------------------------------------------
B|-------------------------------------------------------------------------------------------
G|-------------------------------------------------------------------------------------------
D|-------------------10----------------------10----------------------10----------------------
A|--8--7h8--7---------------8--7h8--7---------------8--7h8--7---------------8--7h8--7--7--5--
E|-------------8--8------8-------------8--8------8-------------8--8------8-------------------



E|----------------------------------------------------
B|----------------------------------------------------
G|--------5-----7/9--7--5-----5-----------5-----------
D|-------------------------5-----5--------------------
A|--3--3-----3----------------------3--3-----3--3--2--
E|----------------------------------------------------



E|--------------------------------------------------------------------------------------------
B|--------------------------------------------------------------------------------------------
G|--------------------5-----5-----5-----5-----5-----5-----5-----5-----------------------------
D|--------------------------------------------------------------------------------------------
A|--3--3--3--3--3--3-----3-----3-----3-----3-----3-----3-----3-----3--5--5--------8--8--------
E|--------------------------------------------------------------------------5--5--------1--1--



E|-----------------------------------------
B|-----------------------------------------
G|-----------------------------------------
D|-----7--------5--------7--------5-----5--
A|--8-----8--6-----8--8-----8--6-----6-----
E|-----------------------------------------



E|-------------------------------------------
B|-------------------------------------------
G|-------------------------------------------
D|-----10--------8--------10--------8-----8--
A|-------------------------------------------
E|--8------8--6-----8--8------8--6-----6-----



E|----------------------
B|----------------------
G|----------------------
D|----------------------
A|--------------1b3--3--
E|--3--3--3--3----------
http://www.guitartabcreator.com
Guitar Tab Creator is intended to store guitar tab created through the tool. It currently does not support in-line text editing. Any text you place in here will be lost. If you need to comment on your tab, please use the "Tab Notes" section located below.