Confrontation

(/) Slide Up  (\) Slide Down  (h) Hammer On  (p) Pull Off  (b) Bend (r) Release (v) Vibrato

E|------------------------
B|------------------------
G|------------------------
D|------------------------
A|---------------------5--
E|--5--5/8--5--5/8--5-----



E|--------------------------------------------------
B|--------------------------------------------------
G|--------------------------------------------------
D|--------------------------------------------------
A|--7--7/10--7--7/10--7--5--7--7/10--7--7/10--7--5--
E|--------------------------------------------------



E|-------------------------
B|-------------------------
G|-------------------------
D|-------------------------
A|----------------------5--
E|--5--5/8--5--5/10--5-----



E|-----------
B|-----------
G|-----------
D|-----------
A|--5--------
E|-----1-----



E|-----------------------------------------------------------------------------------------------------------------------------------------------------------
B|-----------------------------------------------------------------------------------------------------------------------------------------------------------
G|-----------------------------------------------------------------------------------------------------------------------------------------------------------
D|-----------------------------------------------------------------------------------------------------------------------------------------------------------
A|--5--5--3--3--5--5--3--5--5--3--3--8--8--5--5--3--3--5--5--3--3--3--5--5--3--3--8--8--5--5--3--3--5--5--3--3--3--3--5--5--3--3--8--8--5--5--3--3--5--5--3--
E|-----------------------------------------------------------------------------------------------------------------------------------------------------------



E|--------------------------------------------------------
B|--------------------------------------------------------
G|--------------------------------------------------------
D|--------------------------------------------------------
A|--5--5--5--3--3--5--5--5--3--5--5--5--3--3--5--5--5--3--
E|--------------------------------------------------------



E|-----------------------------------------------------------------------------------------------------------------------------------------------------------
B|-----------------------------------------------------------------------------------------------------------------------------------------------------------
G|-----------------------------------------------------------------------------------------------------------------------------------------------------------
D|-----------------------------------3--3--------------------------------------------3--3-----------------------------------------3--3-----------------------
A|--5--5--3--3--5--5--3--5--5--3--3--------5--5--3--3--5--5--3--3--3--3--5--5--3--3--------5--5--3--3--5--5--3--3--3--5--5--3--3--------5--5--3--3--5--5--3--
E|-----------------------------------------------------------------------------------------------------------------------------------------------------------



E|-----------------------------------------------
B|-----------------------------------------------
G|-----------------------------------------------
D|-----------------------------------------3--3--
A|--5--5--5--3--3--5--5--5--3--5--5--3--3--------
E|-----------------------------------------------



E|-----
B|-----
G|-----
D|-----
A|-----
E|--3--
http://www.guitartabcreator.com
Guitar Tab Creator is intended to store guitar tab created through the tool. It currently does not support in-line text editing. Any text you place in here will be lost. If you need to comment on your tab, please use the "Tab Notes" section located below.