Apotheosis

(/) Slide Up  (\) Slide Down  (h) Hammer On  (p) Pull Off  (b) Bend (r) Release (v) Vibrato


E|--------------------------------------------
B|--------------------------------------------
G|--------------------------------------------
D|--------------------------------------------
A|--2-----5--7--2-----5-----2-----5-----5-----
E|-----3-----------3-----0-----3-----0-----0--



E|--------------------------
B|--------------------------
G|--------------------------
D|--------------------------
A|--5--5--5--5--3--1--3-----
E|--------------------------



E|--------------------
B|--------------------
G|--------------------
D|--------------------
A|--5--5--3--1--3--5--
E|--------------------



E|--------
B|--------
G|--------
D|--------
A|--6-----
E|-----3--



E|--
B|--
G|--
D|--
A|--
E|--
http://www.guitartabcreator.com
Guitar Tab Creator is intended to store guitar tab created through the tool. It currently does not support in-line text editing. Any text you place in here will be lost. If you need to comment on your tab, please use the "Tab Notes" section located below.