Dm (Phrygian Shape)

(/) Slide Up  (\) Slide Down  (h) Hammer On  (p) Pull Off  (b) Bend (r) Release (v) Vibrato


E|------------------------------------8p6p5--8p6p5--8p6p5--8p6p5--8p6p5--8p6p5--
B|-------------------5h6p5--6/8v------------------------------------------------
G|-------------------5----------------------------------------------------------
D|--------------7----5----------------------------------------------------------
A|---------5h8------------------------------------------------------------------
E|--5h6h8-----------------------------------------------------------------------



E|----------------
B|--8p6p5h6p5-----
G|-------------7--
D|----------------
A|----------------
E|----------------
http://www.guitartabcreator.com
Guitar Tab Creator is intended to store guitar tab created through the tool. It currently does not support in-line text editing. Any text you place in here will be lost. If you need to comment on your tab, please use the "Tab Notes" section located below.