phase1

(/) Slide Up  (\) Slide Down  (h) Hammer On  (p) Pull Off  (b) Bend (r) Release (v) Vibrato
E|-----------------------------------------------------
B|-----1-----1-----------------1-----1-----------------
G|-----2-----------------------2-----------------------
D|-----2-----2-----------2-----2-----2-----------2-----
A|-----------3-----2-----2-----------3-----2-----2-----
E|-----------------3-----------------------3-----------



E|-------------------------------------------------------------------
B|---1-----1-----1---1-----1-----1---0-----0-----0---0-----0-----0---
G|-----2-----2---------0-----0---------0-----0---------0-----0-------
D|-------2-----2---------2-----2---------0-----0---------0-----0-----
A|-0---------------3-------------------------------------------------
E|---------------------------------3---------------3-----------------



E|---------0-------------------------------------------------------
B|---1-------1---1---1-----1p0-------0-----0-----0---0-----0---0h1-
G|-----2---------------0-------0-------0-----0---------0-----0-----
D|-------2-----2---------2-------2-------2-----2---------2---------
A|-0---------------3-------------------------------2---------------
E|---------------------------------0-------------------------------



E|-----------------------------------------------------------------
B|---1-----1-----1---1-----1-----1---0-----0-----0---0-----0-----0-
G|-----2-----2---------0-----0---------0-----0---------0-----0-----
D|-------2-----2---------2-----2---------0-----0---------2-----2---
A|-0---------------3-------------------------------2---------------
E|---------------------------------3-------------------------------



E|-------------------------------------------------------------------
B|---1---1---1---1-------------------1---1---1---1-------------------
G|---2---2---------------------------2---2---------------------------
D|---2---2---2---2-----------2---2---2---2---2---2-----------2---2---
A|-----------3---3---2---2---2---2-----------3---3---2---2---2---2---
E|-------------------3---3---------------------------3---3-----------



E|--------------------------------------------
B|--------------------------------------------
G|--------------------------------------------
D|--------------2----2--------------2---------
A|----2----2----2----2----2----2----2---------
E|----3----3--------------3----3--------------



E|---------------------------------------
B|---------------------------------------
G|---------------------------------------
D|--------------2----2--------------2----
A|----2----2----2----2----2----2----2----
E|----3----3--------------3----3---------



E|---------------------------------------
B|---------------------------------------
G|----0----0----0----0----0----0----0----
D|----2----2----2----2----2----2----2----
A|----3----3----2----2----3----3----2----
E|---------------------------------------



E|---------------------------------------
B|---------------------------------------
G|----0----0----0----0----0----0----0----
D|----2----2----2----2----2----2----2----
A|----3----3----2----2----3----3----2----
E|---------------------------------------



E|----3----3----3----3----3----3----3----3----3----3----3----3----3----3----3----3----
B|----1----1----1----1----1----1----1----1----1----1----1----1----1----1----1----1----
G|----0----0----0----0----0----0----0----0----0----0----0----0----0----0----0----0----
D|----2----2----2----2----2----2----2----2----2----2----2----2----2----2----2----2----
A|----3----3----3----3----3----3----3----3----3----3----3----3----3----3----3----3----
E|------------------------------------------------------------------------------------



E|----3----3----3----3----3----3----3----3----3----3----3----3----3----3----3----3----
B|----0----0----0----0----0----0----0----0----0----0----0----0----0----0----0----0----
G|----0----0----0----0----0----0----0----0----0----0----0----0----0----0----0----0----
D|----0----0----0----0----0----0----0----0----0----0----0----0----0----0----0----0----
A|----2----2----2----2----2----2----2----2----2----2----2----2----2----2----2----2----
E|----3----3----3----3----3----3----3----3----3----3----3----3----3----3----3----3----

http://www.guitartabcreator.com
Guitar Tab Creator is intended to store guitar tab created through the tool. It currently does not support in-line text editing. Any text you place in here will be lost. If you need to comment on your tab, please use the "Tab Notes" section located below.