From The Sun

(/) Slide Up  (\) Slide Down  (h) Hammer On  (p) Pull Off  (b) Bend (r) Release (v) Vibrato


E|-------3---------------------3-------0-----------------------1---------
B|-----1---1-----1-------1p0-------------3p1-----------------------------
G|---2---------2-------0-----0-------0-----------0-----2/5/3-3---3---3---
D|-3---------3-----0h2-----------0h2-----------2---2---------------3-----
A|-------------------------------------------3-------3-------------------
E|-----------------------------------------------------------------------



E|-----------1---------------------
B|---------------------4---------4-
G|-----3p2-----------1---1---1-----
D|-0h3-----3-------3-------3---3---
A|---------------------------------
E|---------------------------------
http://www.guitartabcreator.com
Guitar Tab Creator is intended to store guitar tab created through the tool. It currently does not support in-line text editing. Any text you place in here will be lost. If you need to comment on your tab, please use the "Tab Notes" section located below.